Incubus

Incubus - Magic Medicine guitar tab

Bass Tab For: Magic Medicine

By: Incubus

As heard on S-C-I-E-N-C-E-

Tabbed by Clarky.

All feedback and criticism welcome at: clarky17@hotmail.com

Or ICQ me at: 12554263

G|----------------------------------------------------------------

D|----------------------7--------------------------7--------------

A|-----9-----9-10---5------------9------9-10---5------------------

E|--7-----7-------------------7------7----------------------------

*Repeat about a million times.

G----------------------------------------------------------------|

D----------------------7-----------------------------------------|

A-----9-----9-10--5-5-----------9-----11------12-----11----10----|

E--7-----7-------------------7------9-----10------9------8----8--|

Get this song at:  amazon.com sheetmusicplus.com

Share your thoughts

0 Comments found