Incubus

Incubus - Leech bass tab

Intro/Verse

|------------------------------------------------------|

|------------------------------------------------------|X2

|-----------------5-5-5-5h7-7-----------------5-5h7----|

|-7-7-X-X-X-X-3-3-------------7-7-X-X-X-X-3-3------0--0|

Variation. only in the last time around during intro.

|-----------------|

|-----------------|

|-----------------|

|-7-7-X-X-X-X-3-3/|

Pre-chorus

|--------------------------------------------------------|

|--------------------------------------------------------|X2

|--------------------------------------------------------|

|-9-9-9-9-9-9-12-12-12-12-12-12-5-5-5-5-5-5-5-5-5-5-5-5-5|

then...

|---------------------------------------------------------|

|---------------------------------------------------------|X2

|---------------------------------------------------------|

|-9-9-9-12-12-11-12-12-12-11-11-12-5-5-5-5-5-5-5-5-5-5-5-5|

Chorus

|-----------------------------------------------------------------------------------

|-----------------------------------------------------------------------------------

|-----------------------------------------------------------------------------------

|-2-0-2-0-2-0--2-0-2-0-2-0--2-0-2-0-2-0--2-0-2-0-2-0--2-0-2-0-2-0--2-0-2-0-2-0--2-0-

---------------------------|

---------------------------|X2

----------------------4-4-4|

2-0-2-0--2-0-2-0-2-0-------|

Heavy part

|------------------------|

|-----------------------2| Do this how ever many times

|------0-2-0---------0h2-|

|-2-0-2------0-2-0-2-----|

THats basically it. Thats the pattern. THeres a few things i left out but you should be

able to figure them out with whats given.

~Jon A.~

Taken from The BassMasta -- http://www.tabs-database.com

Get this song at:  amazon.com sheetmusicplus.com

Share your thoughts

0 Comments found