Incubus

Incubus - Pistola bass tab

Artist: Incubus

Tabbed By: HappyFaceOfDeath

Tuning: Standard

Verse

G-----------------------------------------------

D----------------------------------------------- X3

A----------11-----------------------------------

E---0--12------0--0-0-0--10--10-10--11-11-11----

G-----------------------------------------------

D-----------------------------------------------

A----------11-----------------------9--9-9------

E---0--12------0--0-0-0--10--10-10--------------

G--------------------------------

D--------11---------------------- X2

A---0-12----0--0-0-0--9/11--9----

E--------------------------------

G-----------------------------------------------

D----------------------------------------------- X2

A----------11-----------------------------------

E---0--12------0--0-0-0--10--10-10--11-11-11----

Chorus

G-----------------------------------------------

D-----------------------------------------------

A-----------------------------------------------

E---8888888888888-10-10--55555555-0000-333-10---

G-------------------------------------------------------------------

D-------------------------------------------------------------------

A-----------------------10-12-12-12-12-12-12-12-12-12-10------------

E---8888888888888-10-12----------------------------------12--12-----

G-----------------------------------------------

D-----------------------------------------------

A-----------------------------------------------

E---8888888888888-10-10--55555555-0000-333-10---

G------------------------------------------

D------------------------------------------

A------------------------------------------

E---8888888888888-10-10--55555555-0--0-0---

Bridge:

G----------

D----------

A----------

E---0--0---

(This part is timed with the drums)

G-----------------------------------------------------

D-----------------------------------------------------

A-----7---------------7-----------------7-------------

E---6---6-000-6-----6---6-000-6-----3/6---6-0-0-6-----

G-------------------------------------

D-------------------------------------

A----------------7--5-----------------

E---12/3---0-----------7--5--3---0----

G-----------------------------

D----7-5----------------------

A--------7--5-----------------

E-------------7--5--3---0-----

G---------------------------

D---------------------------

A----7--5-------------------

E---------7--5--3---0/12----

G---------------------------------------------------------

D---4---------------------4---------------4--------------- X2

A-----2-2-0--------2--2-----2-2-0-------------------------

E------------4-2-0-----------------4-2-0----2-0-2-0-2-----

G----------------------------------------------------------

D---4---------------------------------------4--------------

A-----2-2-4--2-0----6--6----6-6-6-7--6-4-2-----------------

E----------------0----------------------------2-0-2-0-2----

G-----------------------------------------------------

D---6-6-6-7--6-4---------6-6-6-7--6-4----4------------

A----------------7-6--2---------------7---------------

E------------------------------------------2-0-2-0-2--

G---------------------------------------------------------

D---4---------------------4---------------4--------------- X4

A-----2-2-0--------2--2-----2-2-0-------------------------

E------------4-2-0-----------------4-2-0----2-0-2-0-2-----

G--------------------------------------------------------

D--------------------------------------------------------

A--------------------------------------------------------

E---6--6----6--66-6--6--6---6--6----6--66-6--6--6/12

Get this song at:  amazon.com sheetmusicplus.com

Share your thoughts

0 Comments found