Incubus

Incubus - Calgone (secret Songs / Secret Part) bass tab

This was hard to hell, correct me if there is something bad.

Starts: 7:00 - I think Dirk use a 5 string but tune E to C for 4 string

version.

If you have it, use a little bit of distorsion.

G|---------------------------------------------------------------------|

D|---------------------------------------------------------------------|

A|---------------------------------------------------------------------|

C|-13-15--13-15-13-12-6-5-0---13-15--13-15-13-12-6-5-02002--0(Let

Ring)|

Starts: 7:59

If you have it, use heavy distorsion.

G|---------------------------------------------------------------------|

D|---------------------------------------------------------------------|

A|---------------------------------------------------------------------|

E|-7-9-11-12-9-7-------------------------------------------------------|

Starts: 8:34

Heavy distorion again.

G|---------------------------------------------------------------------|

D|---------------------------------------------------------------------|

A|----15--------------15-----------------------------------------------|

E|-13----13-12--13-12----13-12-12--------------------------------------|

Starts: 10:48

No distorsion here. This is my favourite.

G|---------------------------------------------------------------------|

D|-----------------------------------------------------------------9---|

A|-----------7-6-----------------------9-8-7-5-------------7-----------|

E|-19/7-7--5-----7-5-7-7---10-7-7-5-7----------7-5-0-5-7-7---7-5-7---77|

P

G|---------------------------------------------------------------------|

D|------------------------9----------------7---7-9---------------------|

A|-5-7------5-7------------------------5-9---9-----9-8-7-5-------------|

E|------5-7-----0-5-0-5-7---77--5-6-7----------------------7-5-7-7-----|

P

G|---------------------------------------------------------------------|

D|---------------------------------------------9-8-9-----------------9-|

A|-------8^-7-5--7-5---------------5---5---------------7-5-------------|

E|-5-7-7-------------7-5--x--7-7-7---7---7-5-7-------x-----5-7--7777---|

P P P

G|---------------------------------------------------------------------|

D|---------------------------------------------------------------------|

A|-7-8-9---------7-9----------------------5--------19-17---------------|

E|-------7-5-7--------7-5-7-0-2-x-x-5-7-7---7-5-7--------7-5-7---------|

G|---------------------------------------------------------------------|

D|-7-8-9------------9--------------------9-9---------5-7---------------|

A|-------7-8-9----------5-7-9-10-----------------5-7-----5-------------|

E|-------------7777---7----------7-5-777-----5-7-----------7-7---------|

P P P

Starts: 11:45

Again, no distorsion. This was hard.

G|---------------------------------------------------------------------|

D|---4-5-6-4-----------3-4---------4-----------------------------------|

A|-5---------5-4-----------4-3-------4-3---------7---------------------|

E|---------------4-3-2---------4-3-------4-5-6-7---7/19-17-14-13-12----|

G|-10-x-12-------------------------------------------------------------|

D|--------11-10-7-------------------------7-5-4-3----------------------|

A|----------------6-5-4-3---------4-5-6-7---------5-4-3---------3-4-7--|

E|------------------------5-3-4-5-----------------------0-2-3-4--------|

|^ Fast/Piano |

G|-----9---8-----------------8-5---------------------------------------|

D|-5-7---6---6-5-4-3-------------8-5-----5-6-----4-------3-4---5-4-----|

A|-------------------4-3-x-x---------8-6-------4-----2-1-----3---------|

E|-------------------------------------------2-----2-------------------|

Get this song at:  amazon.com sheetmusicplus.com

Share your thoughts

0 Comments found