Incubus

Incubus - 11am guitar tab

Incubus

11am from Morning View for titch

Intro, pretty shure it’s the same as the chorus

------------------------------------------------------------------

------------------------------------------------------------------

----4-44----------------4-44----------------4-44------------------

----2-22------2h0-------2-22------2h0--0----2-22--------2h0-------

----2-22---3-------3----2-22---3------------2-22----3---------3---

--0-0-00--3-3-----3---0-0-00--3-3-----3---0-0-00--3---3-----3-----

------------------------------------------------------------------

----4-44------0---------------------------------------------------

----2-22----0-----0h2p0---0---------------------------------------

----2-22--0-----0-------3-----------------------------------------

--0-0-00----------------------------------------------------------

------------------------------------------------------------------

Verse

--------------------------------------------------------------------

--------------------------------------------------------------------

----4-44-----------------4-44-------------------4-44----------------

----2-22--------2h0------2-22-------2h0---0-----2-22--------2h0-----

----2-22---3--------3----2-22---3---------------2-22----3---------3-

--0-0-00--3--3-----3---0-0-00--3--3-----3-----0-0-00--3---3-----3---

-------------------------------|-0-0--0-0--0-0----------------------

-----22------------------------|-0-0--0-0--0-0--3-1-----------------

-----22---2-2-2---0h2p0---0----|-2-2--0-0--2-2--4-2-----------------

---0-00---3-3-3---------3------|-2-2--2-2--2-2--5-3-----------------

-------------------------------|-0-0--3-3--0-0--5-3-----------------

-------------------------------|----------------3-1-----------------

bridge

---------------

--3-3--1-1-1---

--4-4--2-2-2---

--5-5--3-3-3---

--5-5--3-3-3---

--3-3--1-1-1---

Enjoy!!!☺

Any improvements/comants ne1 can make mail me at insane_coconut@hotmail.com

Get this song at:  amazon.com sheetmusicplus.com

Share your thoughts

0 Comments found