Incubus

Incubus - Make Yourself Bass guitar tab

BAND: Incubus

SONG: Make Yourself

TABLATURE: Bass

TABBED BY: Ryan Hegenauer (kingnothing5.28@juno.com)

Db,Gb,B,E

Gb----------4-4-4-5----------------4-4-4-4-4-5--*II

Db-6-6--6-6--------------6-6---6-6--------------*II

Gb-----------4-4-4-4-----------------II

Db-1--1-1-1/-----------6-6-6---6-6-6--II

^^first time^^

chorus

Gb-----------------4-4-4--4-4-----------------*II

Db-1---1-1-1--1-1/--------------6-6-6----6-6-6-*II

riff a Gb-----------------4-4-4--4-4-----------------------------*II

Db-1---1-1-1--1-1/--------------6-6-6----6-6-64-4-4/6-6-6-*II

Gb-----------------4-4-4--4-4-------------6-6--6-6-6-6-*II

Db-1---1-1-1--1-1/-------------6-6-6--6-6/--------------*II

then play riff a again

Get this song at:  amazon.com sheetmusicplus.com

Share your thoughts

0 Comments found