Incubus

Incubus - Make A Move bass tab

Intro

G-------------------------------------------------|

D--6-6-----------------------------------------6--|

A--7-7--7-5-7-----7-5-7-----7-5-7-----5h7-7-7--7--|

E-------------3b--------3b--------3b--------------|

G--------------------------------------------|

D-----------------------------------------6--|

A--7-5-7-----7-5-7-----7-5-7-----5h7-7-7--7--|

E--------3b--------3b--------3b--------------|

Verse 1 & 2

G--------------------------------------|

D--------------------------------------|

A--7-5-7---7-5-7---7-5-7---5h7-7-7-----|x3

E--------0-------0-------0---------3b--|

G---------------------------------------|

D---------------------------------------|

A--7-5-7---7-5-7---7-5-7---5h7-7-7------|

E--------0-------0-------0---------3p0--|

Pre-Chorus 1 & 2

G---------------------------------------------------------------------|

D---------------------------------------------------------------------|

A----------------------2-----2-----2---------------------2-------5~~--|

E--5-5-5-5-5-5-5-5-5-5---3-5---3-5---3-5-5-5-5-5-5-5-5-5---3-0-0------|

Chorus 1 & 2

G--------------------------------------------|

D-----------------------------------------6--|

A--7-5-7-----7-5-7-----7-5-7-----5h7-7-7--7--|x2

E--------3b--------3b--------3b--------------|

Bass Break

G---------------------------------------------------------------------|

D---------------------------------------------------------------------|

A--7-5-7---5-7-7--5-7-5-7---5-7-7--5-7-5-7---5-7-7-5--5h7p5-----------|

E--------7----------------7----------------7-----------------7-6-5-3--|

G-------------------------------------------------------------------|

D------------------------------------------------5h7-7b8r7-5--------|

A--7-5-7---5-7-7--5-7-5-7---5-7-7--5-7-------5-7-------------7-5----|

E--------7----------------7------------7-5h7---------------------3--|

Interlude

G--7-7-7-7-9------|

D-------------9--|

A--5-5-5-5-7------|

E-------------7--|

G--11h12p11----------------------------------------------------------------------------------------|

D-----------14-12--------------------------------------------------------------12-12-12-12-14------|

A-----------------14-12-10-----------------10-10-12-12-14-14-------------10-10----------------14--|

E--------------------------12--12-12-12-12-------------------12-12-12-12---------------------------|

G------------------------------------------------------|

D--10-10-----------10------9b-------------------12-12--|

A--------10-10--------10------10----------12-12--------|

E--------------8-8-------8-------8--10-10--------------|

G--11h12p11-------------------------------------------------------------------------

D-----------14-12-------------------------------------------------------------12-12-12-12-14---

A-----------------14-12-10-----------------10-10-12-12-14-14-------------10-10----------------14--|

E--------------------------12--12-12-12-12-------------------12-12-12-12---------------------------|

G-----------------------------------------------------------------------|

D--10-10-----------10------9b--------------------12-12------------------|

A--------10-10--------10------10----------12-12--------12---------------|

E--------------8-8-------8-------8--10-10------------------10-10-10-10--|

Outro

G------------------------------------------------------------------------------------|

D------------------------------------------------------------------------------------|

A----------------------2-----2-----2-------------------4-4-4-4-5-5-5-5--2-------5~~--|

E--5-5-5-5-5-5-5-5-5-5---3-5---3-5---3-5-5-5-5-5-5-5-5--------------------3-0-3------|

G--------------------------------------------|

D-----------------------------------------6--|

A--7-5-7-----7-5-7-----7-5-7-----5h7-7-7--7--|x4

E--------3b--------3b--------3b--------------|

Brought to you by the BassMasta - http://www.tabs-database.com

Get this song at:  amazon.com sheetmusicplus.com

Share your thoughts

0 Comments found