Incubus

Incubus - Deep Inside Solo guitar tab

Tabs: Deep Inside / Incubus (S.C.I.E.N.C.E)

(main guitar solo)

By: Dave

Email: daud_@hotmail.co.il

Notes: I tried being as precise as I can, which explains the common usage

of '~', 'h' and

'p's... I think I got it quite accurate.

Enjoy! Mail me for comments.

legend:

-------

~ vibrate

h hammer

p pull-off

/ slide (up or down)

b bend

|---------------------------------------------------------------------------------------------

|---------------------------------------------------------------------------------------------

|-11---~~~---9b11b9--------9h11p9p7---7h9-7--------------7---7h9/11-----9--7-7----------------

|-----------------------------------9---------9-7-9--------9--------------------9--7-9--7-9---

|---------------------------------------------------------------------------------------------

|---------------------------------------------------------------------------------------------

|-10p9----------------9-10p9----------------9-10-10-9-9-12-12-9-9-10p9----------------9---10--

|------10----------10--------10----------10----------------------------10----------10---------

|---------11----11--------------11----11----------------------------------11----11------------

|------------12--------------------12----------------------------------------12---------------

|---------------------------------------------------------------------------------------------

|---------------------------------------------------------------------------------------------

|-1012---10-12---9--10p9----------------------------------------12p9----12---12p9----12p9----

|-------------------------/12-----10h12-9-10------------------10------10-----------10------10-

|--------------------------------------------7---9p7-9/11-------------------------------------

|---------------------------------------------------------------------------------------------

|---------------------------------------------------------------------------------------------

|---------------------------------------------------------------------------------------------

|-12---12p9---12/14-14-14-14---10-10-12-12-9-9-10-10-------9-9--------------------------------

|----------------------------------------------------12-12-----9-9b-----b9----9---------------

|--------------------------------------------------------------------------11---11~~-9~~-7-9~~

|---------------------------------------------------------------------------------------------

|---------------------------------------------------------------------------------------------

|---------------------------------------------------------------------------------------------

(repeat twice)

|--------|-12p10----10-10-10~~-10-10-12-12-10--|----10----------------------------------------

|--------|-------12----------------------------|-12----12-10-9-10~~-9-10p9----9b--------------

|--7~~---|:-----------------------------------:|---------------------------11----7-7-9--7-9/11

|--------|:-----------------------------------:|----------------------------------------------

|--------|-------------------------------------|----------------------------------------------

|--------|-------------------------------------|----------------------------------------------

|---------------------------

|---------------------------

|-7-----9-7-----------------

|-----------9-----7---9-9-7-

|-------------7-9---9-------

|--------------------------- --> ...and some base rythem for finish.

Get this song at:  amazon.com sheetmusicplus.com

Share your thoughts

0 Comments found