Incubus

Incubus - A Crow Left Of The Murder guitar tab

Riff A (0:00)

e---------------------------------------------------------------------------|

B---------------------------------------------------------------------------|

G---------------------------------------------------------------------------|

D--------------9~-----------------------------------------------------------|

A------9-h-11---------11--9--11\\-----------------4--------------------------|

E------0--------------------------------2--4--6-----6--4--6/----------------|

e---------------------------------------------------------------------------|

B---------------------------------------------------------------------------|

G---------------------------------------------------------------------------|

D--------------9~-----------------------------------------------------------|

A------9-h-11---------11--9--11\\-----------------4--------------------------|

E------0--------------------------------2--4--6-----6--4--6/----------------|

e---------------------------------------------------------------------------|

B---------------------------------------------------------------------------|

G---------------------------------------------------------------------------|

D--------------13~----------------------------------------------------------|

A------9-h-11---------11--9--11\\-----------------4--------------------------|

E------0--------------------------------2--4--6-----6--4--6/----------------|

e---------------------------------------------------------------------------|

B---------------------------------------------------------------------------|

G---------------------------------------------------------------------------|

D--------------9~----------------------------4-4-4--2-----------------------|

A------9-h-11---------11--9--11\\-------------4-4-4--2-----------------------|

E------0-------------------------------------2-2-2--0-----------------------|

Play riff A thru verses

Riff B (0:42)

..from here on it's instinctual..

e---------------------------------------------------------------------------|

B------------------7--7-7---------------------------------------------------|

G----4--4--4--4----7--7-7----8--8-8-----------------------------------------|

D----5--5--5--5----7--7-7----9--9-9-----------------------------------------|

A----5--5--5--5----5--5-5----9--9-9-----------------------------------------|

E----3--3--3--3--------------7--7-7-----------------------------------------|

Breakdown thingy (1:36)

e---------------------------------------------------------------------------|

B---------------------------------------------------------------------------|

G----4~--------------------4-/-7~--------9-\\-4----2--4--5---4-5-4-----------|

D----4~--------------------4-/-7~--------9-\\-4----0--0--0---0-0-0-----------|

A----2~--------------------2-/-5~--------7-\\-2------------------------------|

E---------------------------------------------------------------------------|

Riff C (2:18)

e---------------------------------------------------------------------------|

B---------------------------------------------------------------------------|

G----4---4-4--4-4--4444--4---/----7---7-7--7-7---7--7-77--/--9--------------|

D----4---4-4--4-4--4444--4---/----7---7-7--7-7---7--7-77--/--9--------------|

A----2---2-2--2-2--2222--2---/----5---5-5--5-5---5--5-55--/--7--------------|

E---------------------------------------------------------------------------|

Riff D (2:34)

e---------------------------------------------------------------------------|

B---------------------------------------------------------------------------|

G----12---12--12-12-12---12---12--12-12-12--9--9-9-9-9-9-9------------------|

D----12---12--12-12-12---12---12--12-12-12--9--9-9-9-9-9-9------------------|

A----10---10--10-10-10---10---10--10-10-10--7--7-7-7-7-7-7------------------|

E---------------------------------------------------------------------------|

Riff AA (3:01)

e---------------------------------------------------------------------------|

B---------------------------------------------------------------------------|

G---------------------------------------------------------------------------|

D--------------9~----------------------------4-4-4--2-----------x4----------|

A------9-h-11---------11--9--11\\-------------4-4-4--2-----------------------|

E------0-------------------------------------2-2-2--0-----------------------|

Riff E (3:11)

..do you get it yet? Do you get it yet?..

e---------------------------------------------------------------------------|

B---------------------------------------------------------------------------|

G---------------------------------------------------------------------------|

D---------13-------------13---------------13---------------13---------------|

A----9h11-----------9h11-------------9h11-------------9h11------------------|

E---------------------------------------------------------------------------|

Riff F

e---------------------------------------------------------------------------|

B---------------------------------------------------------------------------|

G---------------------------------------------------------------------------|

D---------13-------------13---------------13-----------4--4-4--2~-----------|

A----9h11-----------9h11-------------9h11--------------4--4-4--2~-----------|

E------------------------------------------------------2--2-2--0------------|

Riff A x 3

Riff B x 4

Riff A x 2

Riff B x 8

Breakdown x 4

Riff C x 3

Riff D x 1

Riff A x 2

Riff AA x 1

Riff E x 3

Riff F x 1

Get this song at:  amazon.com sheetmusicplus.com

Share your thoughts

0 Comments found