Incubus

Incubus - Crowded Elevator guitar tab

Band: Incubus

Song: Crowded Elevator

Album: When Incubus Attacks vol.1

Tunning: Standard E,A,D,G,B,e

Transcribed by: Reinaldo Gonzalez

Efects: Distortion, Flanger

Intro: (ligth distortion+flanger)

e---------------------------|

B---------------------------|

G---------------------------|

D----------------------0----|

A-------5---7^-0-----5------| X2

E---0-0---0------4-4--------|

And them! (Distortion)

e------------------------------|

B------------------------------|

G------------------------------|

D--2---------------------------|

A--2-7-------7-------7--7------| X3

E--0---5-0-4---5-0-4--4---4----|

e--0-0-0-0----------------------|

B--5^5^5^5^---------------------|

G--------------77----7----------|

D-----------55-77-55-7-2>>------|

A-----------55-55-55-5-2>>------|

E-----------33-55-33-5-0>>------|

Verse 1: (Ligth distortion+flanger)

e---------------------------|

B---------------------------|

G---------------------------|

D----------------------0----|

A-------5---7^-0-----5------| X8

E---0-0---0------4-4--------|

And them! (Distortion)

e---------xxx-------xxx---------------------|

B---------xxx-------xxx---------------------|

G--9-9-99-----5-5-55----4-4-44--2>----------|

D--9-9-99-----5-5-55----4-4-44--2>----------|

A--7-7-77-----3-3-33----2-2-22--0>----------|

E--7-7-77-----3-3-33----2-2-22--0>----------|

Pre-Chorus: (Distortion+flanger)

e------------------------------------------|

B------------------------------------------|

G----------------------------77----7-------|

D----------------------0--55-77-55-7-2>----|

A-------5---7^-0-----5----55-55-55-5-2>----|

E---0-0---0------4-4------33-55-33-5-0>----|

Chorus 1: (Distortion)

e------------------------------0-0-0-0----|

B------------------------------5^5^5^5^---|

G---------------7-7-----7-7---------------|

D-----------6-6-7-7-6-6-7-7-2>------------|

A----5---7--6-6-5-5-6-6-5-5-2>------------|

E--4---4----4-4-5-5-4-4-5-5-0>------------|

And them!

e-----------------------------|

B-----------------------------|

G--------7-7-----7-7----------|

D----5-5-7-7-5-5-7-7-2>-------|

A----5-5-5-5-5-5-5-5-2>-------| X2

E----3-3-5-5-3-3-5-5-0>-------|

Verse 2: (Ligth distortion+flanger)

e---------------------------|

B---------------------------|

G---------------------------|

D----------------------0----|

A-------5---7^-0-----5------| X8

E---0-0---0------4-4--------|

And them! (Distortion)

e---------xxx-------xxx---------------------|

B---------xxx-------xxx---------------------|

G--9-9-99-----5-5-55----4-4-44--2>----------|

D--9-9-99-----5-5-55----4-4-44--2>----------|

A--7-7-77-----3-3-33----2-2-22--0>----------|

E--7-7-77-----3-3-33----2-2-22--0>----------|

Pre-Chorus: (Distortion+flanger)

e------------------------------------------|

B------------------------------------------|

G----------------------------77----7-------|

D----------------------0--55-77-55-7-2>----|

A-------5---7^-0-----5----55-55-55-5-2>----|

E---0-0---0------4-4------33-55-33-5-0>----|

Chorus 2: (Distortion)

e------------------------------0-0-0-0----|

B------------------------------5^5^5^5^---|

G---------------7-7-----7-7---------------|

D-----------6-6-7-7-6-6-7-7-2>------------|

A----5---7--6-6-5-5-6-6-5-5-2>------------|

E--4---4----4-4-5-5-4-4-5-5-0>------------|

And them!

e-----------------------------|

B-----------------------------|

G--------7-7-----7-7----------|

D----5-5-7-7-5-5-7-7-2>-------|

A----5-5-5-5-5-5-5-5-2>-------| X4

E----3-3-5-5-3-3-5-5-0>-------|

Bridge: (flanger)

e--------------------------------------------|

B------8-------8----------11---------11------|

G----9-------9---------12---------12---------|

D--------------------------------------------|

A--7---------------10------------------------| X2

E----------8-------------------11------------|

And them! (Distortion+flanger)

e--------xxx------xxx-----------------------|

B--------xxx------xxx-----------------------|

G--9-9-9-----5-5-5----4-4-4-2-2-4-4-2-2>----|

D--9-9-9-----5-5-5----4-4-4-2-2-4-4-2-2>----|

A--7-7-7-----3-3-3----2-2-2-0-0-2-2-0-0>----|

E--7-7-7-----3-3-3----2-2-2-0-0-2-2-0-0>----|

Chorus 3: (Distortion)

e------------------------------0-0-0-0----|

B------------------------------5^5^5^5^---|

G---------------7-7-----7-7---------------|

D-----------6-6-7-7-6-6-7-7-2>------------|

A----5---7--6-6-5-5-6-6-5-5-2>------------|

E--4---4----4-4-5-5-4-4-5-5-0>------------|

And them!

e-----------------------------|

B-----------------------------|

G--------7-7-----7-7----------|

D----5-5-7-7-5-5-7-7-2>-------|

A----5-5-5-5-5-5-5-5-2>-------| X4

E----3-3-5-5-3-3-5-5-0>-------|

Outro: (Distortion)

e------------------------------|

B------------------------------|

G------------------------------|

D--2---------------------------|

A--2-7-------7-------7--7------| X3

E--0---5-0-4---5-0-4--4---4----|

e--0-0-0-0----------------------|

B--5^5^5^5^---------------------|

G--------------77----7----------|

D-----------55-77-55-7-2>>------|

A-----------55-55-55-5-2>>------|

E-----------33-55-33-5-0>>------|

Soundtrack Scream 3!!! good song!!!

Get this song at:  amazon.com sheetmusicplus.com

Share your thoughts

0 Comments found