Incubus

Incubus - Drive Corected guitar tab

Im puttin this tab up becaus the other tabs are PATHEDIC this is how you really play it even look for yourself,here we go.

Intro/verse/chorus

e----0-0-----------------

B----0-0---7----5-5---5-5

G----0-0---7----4-4---0-0

D----9-9---5--5-5-5---5-5

A--7-7-7-7-7-3--------3-3

E-0-----------------5-5-5

Pre-chorus

e-------------0-0-0-0-0---0-0-0

B----5-5----5-2-2-2-2-2/0-0-0-0

G----4-4----4-0-0-0-0-0---0-0-0

D--5-5-5----5-2-2-2-2-2-------- Repeat

A-3--3-3-3-3--0-0-0-0-0--------

E------------------------------

Solo- This may not be right but i tryed my best!!

e-0---0-0-0--7-5/3-3-5-----------------------3-5-5/7-7-5-10/7-7-5-7-7\\5---------

B-3/5-5-5-5-7----------3-5-3/5\\3-5-3/5-5-3\\5------------------------5\\3-3-5-3/5-

G-------------------------------------------------------------------------------

e-----0-5-3/5-5-3-3----------------]

B-3-0-3------------5-3/5-3-----2/4-]

G-----4--------------------4-2-----]

There you go! make sure you look at the solo real carefully but otherwise it should be good. if you have any questions or comments e-mail me at Bikerboy0545@aol.com thanx!

Get this song at:  amazon.com sheetmusicplus.com

Share your thoughts

0 Comments found