Incubus

Incubus - The Warmth bass tab

Drew Miers

aemmiami@yahoo.com

intro/verses:

G-----------------------------------|

D-----------------------------------|x4

A-10/7–7-7/3-3-3--------------------|

E----------------3-3-3-3-3-0-0-0----|

chorus:

G-------------------------------|

D-------------------------------|x1

A–7-7-7--3-3-3------------------|

E--------------3-3-3--0-0-0-----|

verse 1:

G-----------------------------------|

D-----------------------------------|x4

A-10/7–7-7/3-3-3--------------------|

E----------------3-3-3-3-3-0-0-0----|

chorus:

G-----------------------------|

D-----------------------------|x4

A–7-7-7--3-3-3----------------|

E--------------3-3-3--0-0-0---|

verse 2:

G-----------------------------------|

D-----------------------------------|x4

A-10/7–7-7/3-3-3--------------------|

E----------------3-3-3-3-3-0-0-0----|

chorus:

G-----------------------------|

D-----------------------------|x4

A–7-7-7--3-3-3----------------|

E--------------3-3-3--0-0-0---|

bridge:

G----------------------------------------------|

D----------------------------------------------|

A–2-2-2-22-22-2-2-2-22-2-22-22-2-2-2-22-2-22-33|

E----------------------------------------------|

bridge continued: x1

G----------------------------------------------|

D----------------------------------------------|

A-3-3-3-2-2-2-22-33-3-3-3-22-2-22-55-555555----|

E----------------------------------------------|

chorus:

G------------------------------|

D------------------------------|x4

A–7-7-7--3-3-3-----------------|

E--------------3-3-3--0-0-0----|

outro:

G----------------------------------------------|

D----------------------------------------------|x4

A-10/7–7-7/3-3-3-------------------------------|

E----------------3-3-3-3-3-0-0-0(let ring)-----|

Get this song at:  amazon.com sheetmusicplus.com

Share your thoughts

0 Comments found