Incubus

Incubus - New Skin 4 Strng bass tab

p = Pull-off

h = Hammer-on

S = Slap

P = Pop

Hey guys this is my first tab so the rythm might be wrong but the notes are right

lol

:D please rate , cheers

e,a,d,g

Intro

(harmonic)

G-----------------------------------<5>---|

D-----------------------------------------|

A-2-2----2-2----2-2-----2-2---------------|

E-----------------------------------------|

pre verse

G-----------------------------------------|

D-----------------------------------------|

A-0h2-2-2-2------0h2-2-2-2-x5-xx5---------|

E-----------x1----------------------------|

verse riff

s s s p ss p sssss

G---------------------------------------------|

D----------9----9-----------------------------|

A-----------------------------(3-3-3)---------|

E---5//7-7---77---02020-----------------------|

Pre chorus

G----------------------------------------------

D----------------------------------------------

A--2-22-2---3-3333-----------------------------

E--------3-3-----------------------------------

Chorus

G----------------------------------------------

D----------------------------------------------

A----------7-7-777---------8-8-888-------------

E--5-5-555---------8-8-888---------------------

G----------------------------------------------

D----------------------------------------------

A----------7-7-777---------10-10-101010--------

E--5-5-555---------8-8-888---------------------

pre verse

G-----------------------------------------|

D-----------------------------------------|

A-0h2-2-2-2------0h2-2-2-2-x5-xx5---------|

E-----------x1----------------------------|

verse riff

s s s p ss p sssss

G---------------------------------------------|

D----------9----9-----------------------------|

A-----------------------------(3-3-3)---------|

E---5//7-7---77---02020-----------------------|

Pre chorus

G----------------------------------------------

D----------------------------------------------

A--2-22-2---3-3333-----------------------------

E--------3-3-----------------------------------

Chorus

G----------------------------------------------

D----------------------------------------------

A----------7-7-777---------8-8-888-------------

E--5-5-555---------8-8-888---------------------

G----------------------------------------------

D----------------------------------------------

A----------7-7-777---------10-10-101010--------

E--5-5-555---------8-8-888---------------------

(harmonic)

G-----------------------------------<5>---|

D-----------------------------------------|

A-2-2----2-2----2-2-----2-2---------------|

E-----------------------------------------|

bass solo

G------------------------------------------

D------------------------------------------

A--2-2-0-3-3-0-2-2-0------0----------------

E--------------------3-3-------------------

G-----------------------------------------|

D-----------------------------------------|

A-2-2-2-2-2-0-3-3-3-3---------------------|

E-----------------------------------------|

outro

G-----------------------------------------|

D-----------------------------------------|

A-2-2-2-2-2-2-7---------------------------|

E-----------------------------------------|

Get this song at:  amazon.com sheetmusicplus.com

Share your thoughts

0 Comments found