Incubus

Incubus - Just A Phase guitar tab

Incubus

Standard Tuning

This is now correct (slight change to the intro)

intro

---------------------------------------2--- ------2-----3--2--

---------------------------------------3--- ------3-----3--2--

---------------6---4-------------------4--- ---1--4--1--4--3--

---------0-5-----7---5-0h2-5-0-----2---4--- ---2--4--2--5--4--

---0-4-5-----0-----------------0-2---2-2--- ---2--2--2--5--4--

-0----------------------------------------- ------------3--2--

main riff

--------------------------------------------------------

-------5-----------------------5----------5-------------

-------6-----------0-----------6----------6-------------

-----6---6-------4---4-------6---6------6---6-----------

---7-------7---5-------5---7-------7--4---------6-------

-0-----------0-----------0--------------------4---------

Who are you? ...

-------------------------------------------------------------

-------------------------------------------------------------

-------0-------------------0-------------------0-------------

-----6---6---------------6---6---------------6---6-----------

---4-------4---4---4---4-------4---4---4---4-------4---4---4-

-5-----------5---4---5-----------5---4---5-----------5---4---

--------------------------

--------------------------

--------0-----------------

------6---6---------------

---4--------4-------------

-5------------5/-8--------

Get this song at:  amazon.com sheetmusicplus.com

Share your thoughts

0 Comments found