Incubus

Incubus - Under My Umbrella guitar tab

I am pretty sure this is right. In fact I'm positive it is ;) Have fun with this,

it may not sound right at first but with practice it sounds perfect.

Intro/Chorus:

----------------------------------------------------------------------------------------

----------------------------------------------------------------------------------------

---x-10-10-10---10-10-10---10-10-10---10-10-10---10-10-10---10-10-10---6-6-6---6-6-6----

---x-x--x--x----x--x--x----x--x--x----x--x--x----x--x--x----x--x--x----6-6-6---6-6-6----

---x-8--8--8----8--8--8----8--8--8----8--8--8----8--8--8----8--8--8----4-4-4---4-4-4----

-------------------------------------------------9--9--9----9--9--9----4-4-4---4-4-4----

-----------------------------------------------------------------------------------------

-----------------------------------------------------------------------------------------

----2-2-2---2-2-2---2-2-2--10-10-10---8-8-8-8-8-8-8-------------------------x2-----------

----3-3-3---3-3-3---3-3-3--x--x--x----x-x-x-x-x-x-x-6-8-8-8-6-6-6---6---6----------------

----3-3-3---3-3-3---3-3-3--8--8--8----6-6-6-6-6-6-6-6-6-6-6-4-4-4---4---4----------------

--0-1-1-1---1-1-1---1-1-1-------------4-4-4-4-4-4-4-4-6-6-6-4-4-4---4---4----------------

Verse:

-----------------------------------------------------------------------------------------

-----------------------------------------------------------------------------------------

-----------------------------------------------------------------------------------------

--3-3-----------3-3-----------3-3-------------3-3----------------------------------------

------6-6-----------6-6-----------6-6-6-----------6-6-3----------------------------------

----------4-------------3---------------4------------------------------------------------

Bridge:

-----------------------------------------------------------------------------------------

-----------------------------------------------------------------------------------------

-----------------------------------------------------------------------------------------

-6-6-3-3-3---6-8-8-8-6-6-6---6---6---x2---6-6-3-3-3---6-8-8-8-6-6-6-0-4---4-4-4-4-4-4-4-4

-x-x-x-x-x---4-6-6-6-4-4-4---4---4--------x-x-x-x-x---4-6-6-6-4-4-4-0-2---2-2-2-2-2-2-2-2

-4-4-1-1-1---4-6-6-6-4-4-4---4---4--------4-4-1-1-1---4-6-6-6-4-4-4-0-2---2-2-2-2-2-2-2-2

Intro

Verse

Chorus

Verse

Chorus

Bridge

Chorus

Bridge

Get this song at:  amazon.com sheetmusicplus.com

Share your thoughts

0 Comments found