Incubus

Incubus - Pardon Me Intro guitar tab

pre verse/bridge

Incubus pardom me( make yourself

(play 2x)-----------------------------------------

E--0-------0------------0---------0-----------0---------

B--0-------0------0--0-----0--------7-------------7-----

G--4-------4-------4---------4------6-----4-------4-----

D--2-------2-------2---------2------------6-------6-----

A--4-------4-------4---------4--------------------7-----

E----------5-----------------5--------------------------

chorusE(b goes for E and g goes for b and d goes forr g)

B-4-------2-------0-------------4----4----------0----

G-4-------2-------0-------------4----4----------0----

D-6-------4-------2-------------6----6----------2----

A-4-------2-------0-------4-2-4-2---------------0----

E-------------------------2-0-2-0--------------------

THere you go stupid ones have fun

Get this song at:  amazon.com sheetmusicplus.com

Share your thoughts

0 Comments found