Incubus

Incubus - Pantomime guitar tab

^ Bend

¶ Light Vibrato

( ) Note to bend to

* Pick String Behind nut

~ Let ring

\\ Slide

/ Slide Down

H Hammer on

P Pull off

Guitar 1 Alternate. Endings

e|----------------------||--------||-------|

b|----------------------||--------||-------|

g|-xxxxxx---------------||--------||-------|

d|-xxxxxx----6x6xx-5x5x-||-x-x-xx-||-3-3-3-|

a|-xxxxxx-xx-6x6xx-5x5x-||-x-x-xx-||-3-3-3-|

E|-xxxxxx-xx-4x4xx-3x3x-||-x-x-xx-||-1-1-1-|

Chorus Guitar 1

e|--6666666666-44444444444--|

b|--6666666666-44444444444--|

g|--7777777777-55555555555--|

d|--8888888888-66666666666--|

a|--8888888888-66666666666--|

E|--6666666666-44444444444--|

Guitar 2 during second chorus w/phaser X2

e|----------------------------------------|

b|----------------------------------------|

g|-3/5/7/9/19-----------------------------|

d|----------------------------------------|

a|-1/3/5/7/8------------------------------|

E|----------------------------------------|

Guitar 2

e|-------------------------------------------------|

b|-------------------------------------------------|

g|--------------------------------333/555/-7-77-77-|

d|------------------------------6-xxx-xxx--x-xx-xx-|

a|--------------------------------111/333/-5-55-55-|

E|--4-4444-5-5555-4-4444-111/4-44------------------|

Heavy distortion Guitar 1

e|--6666666666-44444444444----|

b|--6666666666-44444444444----|

g|--7777777777-55555555555----|

d|--8888888888-66666666666----|

a|--8888888888-66666666666----|

E|--6666666666-44444444444----|

Guitar 2 with autofilter/wah/ Elecrtix Filter Factory Unit

start Tremolo picking from begining of the bridge till the solo

(wah works best)

e|---------------------------------------------|

b|----------161616--------161616---------------|

g|---151515x15151515/1515x151515151515---------|

d|---xxxxxxxxxxxxxxxxxxxxxxxxxxxxxxx-----------|

a|---131313x13131313/1313x131313131313---------|

E|---------------------------------------------|

Tremolo picking Filter Factory+phaser+delay solo

e|------------------------------------------------|

b|16-151515/181818/202020\\1818181818\\16161616-444-|

g|------------------------------------------------|

d|------------------------------------------------|

a|------------------------------------------------|

E|------------------------------------------------|

-

Bend slowly while still pciking

e|------------------------------------------18^^------|

b|---18^(21)-1616-151515/13H15x1515/13H1515-----------|

g|----------------------------------------------------|

d|-----------------------------------------------0----|

a|-----------------------------------------------0/10-|

E|-----------------------------------------------0/10-|

e|--6666666666-4-4-4-4-4-4-4-4444----|

b|--6666666666-4-4-4-4-4-4-4-4444----|

g|--7777777777-5-5-5-5-5-5-5-5555----|

d|--8888888888-6-6-6-6-6-6-6-6666----|

a|--8888888888-6-6-6-6-6-6-6-6666----|

E|--6666666666-4-4-4-4-4-4-4-4444----|

Octave solo (with phasser)

This is after the second 7 hits of the G5 ^ this is hard to hear

e|--------------------------------------------------------|

b|--------------------------------------------------------|

g|------78-1010-12121313101010101010-12121313101010101010-|

d|-8-10-xx-x-x--x-x-x-x-x-x-x-x-x-x--x-x-x-x-x-x-x-x-x-x--|

a|-x-x--56-8-8--101011118-8-8-8-8-8--101011118-8-8-8-8-8--|

E|-6-8----------------------------------------------------|

e|------------------------------------------------------|

b|------------------------------------------------------|

g|-131312121010-131312121010-131312121010-131312121010--|

d|--x-x-x-xx-x--x-x-x-xx-x----x-x-x-xx-x---x-x-x-xx-x---|

a|-111110108-8--111110108-8--111110108-8--111110108-8---|

E|------------------------------------------------------|

e|--------------------------6-4-6-4----6------|

b|--------------------------6-4-6-4---6-------|

g|-1010101088887777---------7-5-7-5--7--------|

d|-x-x-x-x-xxxxxxxx10101010-8-6-8-6-8---------|

a|-8-8-8-8-66665555x-x-x-x--8-6-8-6-8---------|

E|-----------------8-8-8-8--6-4-6-4-6---------|

Enjoy__

-RS- @Ultimate-guitar.com

questions? Email me, webmaster at tabs-database.com.comAdded by tabs-database.com and our distinguished partners

Get this song at:  amazon.com sheetmusicplus.com

Share your thoughts

0 Comments found