Incubus

Incubus - Talk Show On Mute bass tab

Band: Incubus

Song: Talk show on mute (bass Tablature)

Album: A Crow left of the murder

Tabbed By: Me-Troa-Geira_Kyo-Barton-Shiro

INTRO (00:10)

G|------------------------------------------------------------------------|

D|-5-5--------------------------------------------------------------------|

A|--------3-3---3-3-3/5-5---------3-3---3-3--3/5-5------------------------|

E|------3-----3-----------------3-----3-----------------------------------|

G|------------------------------------------------------------------------|

D|--------------------------------------------5-5-------------------------|

A|--------0-0---0-0-2-2----------0-0---0-0--------------------------------|

E|------3-----3----------------3-----3------------------------------------|

VERSE

G|------------------------------------------------------------------------|

D|--------------------------------------------------------------------5-5-|

A|--------3-3---3-----------3-3----3--------0-0---0----------0-0---0------|

E|------3-----3-----------3-----3---------3-----3----------3-----3--------|

There's a minor variation in 00:38 and 1:38

G|------------------------------------------------------------------------|

D|------------------------------------------------------------------------|

A|-----3-3-5-7------------------------------------------------------------|

E|---3--------------------------------------------------------------------|

Before the Chorus, instead of playingthe 5-5 in the d string. play this)

G|------------------------------------------|

D|---2-2h3-3--------------------------------|

A|------------------------------------------|

E|------------------------------------------|

CHORUS

G|----------------------------------------------------------------------|

D|--------------333333---3/----------3/5-5---2-2------2/3/2-------------|

A|--------3------------3-------------------------3/5---------3/5/3------|

E|--1-1-------------------------3-3-------------------------------------|

G|----------------------------------------------------------------------|

D|----------------------------------------------------------------------|

A|----------------0-----------------------------------------------------|

E|---1-1-1-1--0-1---3-3---3--6--3-3-3-3---------------------------------|

play intro, verse and chorus again

SOLO

G|------------------------------------------------------------------------|

D|--5-5---------------------------------------------------------------5-5-|

A|--------3-3---3-----------3-3----3--------0-0---0----------0-0---0------| x2

E|------3-----3-----------3-----5---------3-----3----------3-----3--------|

G|----------------------------------------------------------------------|

D|--3------------333333---3/----------3/5-5---2-2------2/3/2------------|

A|--------3------------3-------------------------3/5---------3/5/3------|

E|----1-------------------------3-3-------------------------------------|

G|----------------------------------------------------------------------|

D|---------------3h5-3--------------5-------5---------------------------|

A|------------3----------3-3-3-----------------------2-2---0------------|

E|---1-1-1-1---------------------3----3-3-3----3-3-------3--------------|

CHORUS

G|----------------------------------------------------------------------|

D|--------------333333---3/----------3/5-5---2-2------2/3/2-------------|

A|--------3------------3-------------------------3/5---------3/5/3------|

E|--1-1-------------------------3-3-------------------------------------|

G|---------------2-------------------------------------------------------|

D|-------------3---------------------------------------------------------|

A|-----------------------------------------------------------------------|

E|---1-1-1-1---------3-3---3--6--3-3-3-3---------------------------------|

Outro

G|------------------------------------------------------------------------|

D|------------------------------------------------------------------------|

A|--------3-3---3-3-3/5-5---------3-3---3-3--3/5-5------------------------|

E|------3-----3-----------------3-----3-----------------------------------|

G|------------------------------------------------------------------------|

D|---------------------------3-3------------------------------------------|

A|--------0-0---0-0-2-2---------------------------------------------------|

E|------3-----3------------1----------------------------------------------|

Get this song at:  amazon.com sheetmusicplus.com

Share your thoughts

0 Comments found