Incubus

Incubus - Drive5 guitar tab

drive5.tab1Artist: Incubus

Song: Drive

Album: Make Yourself

I'm pretty sure this is correct...I saw it

in an interview with Mike Einziger (the guitarist).

intro/verse/chorus:

Em7 Em9 Cmaj7 Am7

e:--------0-0-----------------------------------------------

B:--------0-0----x--------7-7------------5-5--x------5-5-5--

G:--------0-0----x--------7-7------------4-4--x------0-0-0--

D:--------9-9----x--------5-5-------5----5-5--x------5-5-5--

A:-----7--7-7--------7----7-7----3-------------------3-3-3--

E:--0---------------------------------------------5--5-5-5--

pre-chorus:

Cmaj7 A7

e:-----------------------------0-(0)---0--0-0-0---0-0---

B:--------5-5----------5-(5)---2-(2)---2--2-2-2p0-0-0---

G:--------4-4----------4-(4)---0-(0)---0--0-0-0---0-0---

D:----5---5-5----------5-(5)---2-(2)---2--2-2-2---------

A:-3------3-3----3--3----------0-(0)-0-0--0-0-0---------

E:------------------------------------------------------

(after 2nd pre-chorus, end with A7)

guitar solo:(on recorcded version, this is played with 3 guitars:

an acoustic, an electric, and another electric with a slide)

e:------0-----0-0--0------7--5\\3--3-(3)-5--------------------------

B:------3/5---5-5--5---7-------------------3--5----3/5\\3--5-3/5----

G:-----------------------------------------------------------------

D:-----------------------------------------------------------------

A:-----------------------------------------------------------------

E:-----------------------------------------------------------------

e:-----------3---5-----5/7---7-5----10\\7---7-(7)--5--7-7\\5---------

B:--5-3/5----------------------------------------------5\\3--3-5----

G:-----------------------------------------------------------------

D:-----------------------------------------------------------------

A:-----------------------------------------------------------------

E:-----------------------------------------------------------------

e:-------------0------5-3h5---5--3--3------------------------------

B:--3h5-3--0---3-----------------------5--3h5--3-------------------

G:-------------4------------------------------------4--2----2/4----

D:-----------------------------------------------------------------

A:-----------------------------------------------------------------

E:-----------------------------------------------------------------

(finish with pre-chorus and chorus)

h:hammer-on Chords used:

p:pull-off Em7 Em9 Cmaj7 Am7 A7

/:slide up -0---x---x----x---0--

\\:slide down -0---7---5----5---2---

():let note ring -0---7---4----0---0---

x: muted note(s) -9---5---3----5---2---

-7---7---5----3---0---

-0---0---x----5---x--

Get this song at:  amazon.com sheetmusicplus.com

Share your thoughts

0 Comments found