Incubus

Incubus - I Wish You Were Here guitar tab

---------

INCUBUS

---------

I Wish You Were Here

----------------------------------------------------------------------------

Tabber:Tyler S

Band:Incubus

Song:I Wish You Were Here

Album:Morning view

Tuning:Stanard EADGBe

KEY

/-slide higher on the fretboard

\-slide lower on the fretboard

[-next phrase

h-hammer-on note

p-pull-off note

~-vibrato

()-if a note(s) are in parenthesis, its what sounds good to me with the rest but are not

in the song

This song is pretty easy for the most part, but some of the notes are hard to get if you

just beggining, and you must know how to arpaggiate to play this song.

Intro(clean)

e]-------------------------------[-------------------------------]

B]---000-------------------------[---000-------------------------]

G]---444-4-444440---------2-22220[---444-4-444440---------2/9/11-]

D]--2222-2-222220-4-444/7-2-22220[--2222-2-222220-4-444/7-2/x/x--]

A]-0-000-2-222220-2-222/5-0-00000[-0-000-2-222220-2-222/5-0/7/9--]

E]----------------2-222/5--------[----------------2-222/5--------]

Whoo!

Chorus(distortion)

e]------------------------------[-------------------------------]

B]--000-------------------------[--000--------------------------]

G]--444-4-444440---------2-22220[--444-4-444440---------2-22220-]

D]--222-2-222220-4-444/7-2-22220[--222-2-222220-4-444/7-2-22220-]

A]--000-2-222220-2-222/5-0-00000[--000-2-222220-2-222/5-0-00000-]

E]---------------2-222/5--------[---------------2-222/5---------]

e]------------------------------[-------------------------------]

B]--000-------------------------[--000--------------------------]

G]--444-4-444440---------2-22220[--444-4-444440---------2-22220-]

D]--222-2-222220-4-444/7-2-22220[--222-2-222220-4-444/7-2-22220-]

A]--000-2-222220-2-222/5-0-00000[--000-2-222220-2-222/5-0-00000-]

E]---------------2-222/5--------[---------------2-222/5---------]

(Clean w/delay)

e]-------------------12--(12)~~-]-----------------------------00000-]

B]--7-7-7--------------9--10~~~-]--7-7-7-----------9----------00000-]

G]-9-9-9-----------9----9-9~~~~-]-9-9-9-----------9-9--11-9---77777-]

D]--------11~~-9h11-------11~~~-]--------11~~-9h11---11-----11------]

A]------------------------------]-----------------------------------]

E]------------------------------]-----------------------------------]

e]-------------------12--(12)~~-]-----------------------------00000-]

B]--7-7-7--------------9--10~~~-]--7-7-7-----------9----------00000-]

G]-9-9-9-----------9----9-9~~~~-]-9-9-9-----------9-9--11-9---77777-]

D]--------11~~-9h11-------11~~~-]--------11~~-9h11---11-----11------]

A]------------------------------]-----------------------------------]

E]------------------------------]-----------------------------------]

I dig my toes into the sand.. The ocean looks like a thousand diamonds

strewn across a blue blanket...

e]-------------------12--(12)~~-]-----------------------------00000-]

B]--7-7-7--------------9--10~~~-]--7-7-7-----------9----------00000-]

G]-9-9-9-----------9----9-9~~~~-]-9-9-9-----------9-9--11-9---77777-]

D]--------11~~-9h11-------11~~~-]--------11~~-9h11---11-----11------]

A]------------------------------]-----------------------------------]

E]------------------------------]-----------------------------------]

I lean against the wind.. pretend that I am weightless..and in this moment

I am happy...happy

e]------------------------------[-------------------------------]

B]--000-------------------------[--000--------------------------]

G]--444-4-444440---------2-22220[--444-4-444440---------2-22220-]

D]--222-2-222220-4-444/7-2-22220[--222-2-222220-4-444/7-2-22220-]

A]--000-2-222220-2-222/5-0-00000[--000-2-222220-2-222/5-0-00000-]

E]---------------2-222/5--------[---------------2-222/5---------]

I.....Wish you were here.... I....Wish you were here....

e]------------------------------[-------------------------------]

B]--000-------------------------[--000--------------------------]

G]--444-4-444440---------2-22220[--444-4-444440---------2-22220-]

D]--222-2-222220-4-444/7-2-22220[--222-2-222220-4-444/7-2-22220-]

A]--000-2-222220-2-222/5-0-00000[--000-2-222220-2-222/5-0-00000-]

E]---------------2-222/5--------[---------------2-222/5---------]

I...............Wish you were here.... I..............Wish you were

(Clean w/delay)

e]-------------------12--(12)~~-]-----------------------------00000-]

B]--7-7-7--------------9--10~~~-]--7-7-7-----------9----------00000-]

G]-9-9-9-----------9----9-9~~~~-]-9-9-9-----------9-9--11-9---77777-]

D]--------11~~-9h11-------11~~~-]--------11~~-9h11---11-----11------]

A]------------------------------]-----------------------------------]

E]------------------------------]-----------------------------------]

Here....

e]-------------------12--(12)~~-]-----------------------------00000-]

B]--7-7-7--------------9--10~~~-]--7-7-7-----------9----------00000-]

G]-9-9-9-----------9----9-9~~~~-]-9-9-9-----------9-9--11-9---77777-]

D]--------11~~-9h11-------11~~~-]--------11~~-9h11---11-----11------]

A]------------------------------]-----------------------------------]

E]------------------------------]-----------------------------------]

I lay my head onto the sand, The sky resembles a backlit canopy with

holes punched in it

e]-------------------12--(12)~~-]-----------------------------00000-]

B]--7-7-7--------------9--10~~~-]--7-7-7-----------9----------00000-]

G]-9-9-9-----------9----9-9~~~~-]-9-9-9-----------9-9--11-9---77777-]

D]--------11~~-9h11-------11~~~-]--------11~~-9h11---11-----11------]

A]------------------------------]-----------------------------------]

E]------------------------------]-----------------------------------]

I'm counting U.F.O's. I signal them with my lighter and in this moment i am

happy, happy..

Chorus(Distortion)

e]------------------------------[-------------------------------]

B]--000-------------------------[--000--------------------------]

G]--444-4-444440---------2-22220[--444-4-444440---------2-22220-]

D]--222-2-222220-4-444/7-2-22220[--222-2-222220-4-444/7-2-22220-]

A]--000-2-222220-2-222/5-0-00000[--000-2-222220-2-222/5-0-00000-]

E]---------------2-222/5--------[---------------2-222/5---------]

I.....Wish you were here.... I....Wish you were here....

e]------------------------------[-------------------------------]

B]--000-------------------------[--000--------------------------]

G]--444-4-444440---------2-22220[--444-4-444440---------2-22220-]

D]--222-2-222220-4-444/7-2-22220[--222-2-222220-4-444/7-2-22220-]

A]--000-2-222220-2-222/5-0-00000[--000-2-222220-2-222/5-0-00000-]

E]---------------2-222/5--------[---------------2-222/5---------]

I.............Wish you were here.. I.......Wish you were here, Wish you were

Clean(Live i use a phase shifter to make their D.J.'s effect)

e]------------------------------------]-------------------------------------|

B]-------------------------------0000-]-------------------------------------|

G]--6-6-6-6-6-6/9999\7-7-7-7-7-7-0000-]-6-6-6-6-6-6/9999\7-7-7/121212121212-|

D]--x-x-x-x-x-x/xxxx\x-x-x-x-x-x------]-x-x-x-x-x-x/xxxx\x-x-x/x-x-x-x-x-x--|

A]--4-4-4-4-4-4/7777\5-5-5-5-5-5------]-4-4-4-4-4-4/7777\5-5-5/101010101010-|

E]------------------------------------]-------------------------------------|

Here....... Oh yeahaaah

e]------------------------------------]-------------------------------------|

B]-------------------------------0000-]-------------------------------------|

G]--6-6-6-6-6-6/9999\7-7-7-7-7-7-0000-]-6-6-6-6-6-6/9999\7-7-7/121212121212-|

D]--x-x-x-x-x-x/xxxx\x-x-x-x-x-x------]-x-x-x-x-x-x/xxxx\x-x-x/x-x-x-x-x-x--|

A]--4-4-4-4-4-4/7777\5-5-5-5-5-5------]-4-4-4-4-4-4/7777\5-5-5/101010101010-|

E]------------------------------------]-------------------------------------|

The world's a rollercoaster,and I am not strapped in, maybe i should hold with care, but

hands are busy in the air, sing!

Clean(Same as intro)

e]-------------------------------[-------------------------------]

B]---000-------------------------[---000-------------------------]

G]---444-4-444440---------2-22220[---444-4-444440---------2/9/11-]

D]--2222-2-222220-4-444/7-2-22220[--2222-2-222220-4-444/7-2/x/x--]

A]-0-000-2-222220-2-222/5-0-00000[-0-000-2-222220-2-222/5-0/7/9--]

E]----------------2-222/5--------[----------------2-222/5--------]

I...Wish you were here.... I....wish you were

Chorus(Distortion)

e]------------------------------[-------------------------------]

B]--000-------------------------[--000--------------------------]

G]--444-4-444440---------2-22220[--444-4-444440---------2-22220-]

D]--222-2-222220-4-444/7-2-22220[--222-2-222220-4-444/7-2-22220-]

A]--000-2-222220-2-222/5-0-00000[--000-2-222220-2-222/5-0-00000-]

E]---------------2-222/5--------[---------------2-222/5---------]

I.....Wish you were here.... I....Wish you were here....

e]------------------------------[--------------------------------]

B]--000-------------------------[--000---------------------------]

G]--444-4-444440---------2-22220[--444-4-444440---------2-2222-4~]

D]--222-2-222220-4-444/7-2-22220[--222-2-222220-4-444/7-2-2222-2~]

A]--000-2-222220-2-222/5-0-00000[--000-2-222220-2-222/5-0-0000-0~]

E]---------------2-222/5--------[---------------2-222/5----------]

I.............Wish you were, HERE.........Wish you were here...

So that was my tab for I wish you were here by Incubus hope you liked it,I learned it

by ear and didnt look at any other tabs, so if you have any questions or comments email me

Notaplayer1423@aim.com,

Thanks.

Get this song at:  amazon.com sheetmusicplus.com

Share your thoughts

0 Comments found