Incubus

Incubus - Pardon Me guitar tab

Guitar Tablature for Pardon Me (Acoustic)

by The Incubus

Album Info:

-------------------------------------

Song: Pardon Me (Acoustic)

Artist: Incubus

Album: Make yourself

Version: MP3 acoustic version (not on this album)

Sony/Epic; ASIN: B0000296JB

-------------------------------------

Transcribed by: Robert Seder [robertcseder@yahoo.com]

This is played with a single 6-string acoustic guitar with standard

(EADGBE) tuning. Listen to the song for the actual feel/timing of the

song. The acoustic version has the same timing as the original, but

for someone who's never heard the song - it's difficult to explain.

I put the actual notes down - use this as a reference, use the song

as a guide to to the timing. The chorus is just simple power chords

so I didn't tab them. This tablature is my own work, it may be

distributed freely.

Guitar Setup:

None - Acoustic only

Playing:

Since there are tricky fingerings, I try to play it a little harder so

the open strings ring. Since there are a lot of changes, getting this

song to "flow" is difficult at first. Have fun!

(Intro)

C#m7 Asus2

E|-------------------|---------------------

B|----------0--------|-----------0---------

G|------4-----0------|------4------0-------

D|----2---------2----|----2----------2-----

A|--4-----4-------4--|--0------0-------4---

E|-------------------|---------------------

C#m7 Asus2

E|-------------------|-----------0---------

B|----------0--------|-----------0---------

G|------4-----0------|------4----4---------

D|----2---------2----|----2------2---------

A|--4-----4-------4--|--0------0-----------

E|-------------------|---------------------

Repeat 1x

C#m7 Asus2

E|-0---0-0-0--0--0---|--0---0---0----------

B|-0---0-0-0--0--0---|--0---0---0----------

G|-6---6-6-6--6--6---|--2---2---2----------

D|-6---6-6-6--6--6---|--2---2---2----------

A|-4---4-4-4--4--4---|--0---0---0----------

E|-4---4-4-4--4--4---|--0---0---0----------

C#m7 Asus2 E

E|-0---0-0-0--0--0---|--0---0---0----------

B|-0---0-0-0--0--0---|--0---0---0----------

G|-6---6-6-6--6--6---|--2---2--------------

D|-6---6-6-6--6--6---|--2---2---2----------

A|-4---4-4-4--4--4---|--0---0---2----------

E|-4---4-4-4--4--4---|--0---0---0----------

C#m7 Asus2

E|-0---0-0-0--0--0---|--0---0---0----------

B|-0---0-0-0--0--0---|--0---0---0----------

G|-6---6-6-6--6--6---|--2---2---2----------

D|-6---6-6-6--6--6---|--2---2---2----------

A|-4---4-4-4--4--4---|--0---0---0----------

E|-4---4-4-4--4--4---|--0---0---0----------

C#m7 E B A

E|-0---0-0-0--0--0---|----------------

B|-0---0-0-0--0--0---|--5-5-----------

G|-6---6-6-6--6--6---|--4-4--4-4--2---

D|-6---6-6-6--6--6---|--2-2--4-4--2---

A|-4---4-4-4--4--4---|-------2-2--0---

E|-4---4-4-4--4--4---|----------------

(Verse)

G# E D# D# C# B D D

E|--2----2-------------0----0---0---0--

B|--0----0----2---2----4----0---3---3--

G|-1----------0---0---------4---2---2--

D|------2----1---1----------4--0---0---

A|--------------------4----2-----------

E|-------------------------------------

C# G# Emaj7 Emaj7 D# B A

E|-------0-------4-------4-------2--------0--0-

B|-----4---------4-------4-------2--------0--0-

G|---4-----------4-------4-------3------4----2-

D|-----------6--2-------2-------1-----4------2-

A|--4--------6----------------------2--------0-

E|----------4----------------------------------

(Chorus)

C#m B A E F# E

G# E G# E

--------------------------

8676

Get this song at:  amazon.com sheetmusicplus.com

Share your thoughts

0 Comments found