Incubus

Incubus - Idiot Box guitar tab

intro/chorus: use distortion pedal

E:---------------------------------------------------

B:---------------------------------------------------

G:---------------------------------------------------

D:---7---7---8---5---7---7---6------------------

A:---5---5---6---3---5---5---8---7---7---5---8

E:------------------------------------5---5---3---6

Verse: use a chorus pedal here

E:---14---7---4------------2------------------------------

B:---13---6---3------1-------1---------------------------

G:---14---7---4---2----2------2-------------------------

D:-----------------------------------------------------------

A:-----------------------------------------------------------

E:-----------------------------------------------------------

interlude: just hit g a bunch of times like this

E:---------------------------------

B:---------------------------------

G:---------------------------------

D:---------------------------------

A:---5-5-5-5-5-5-5-5-5-5-5-

E:---3-3-3-3-3-3-3-3-3-3-3-

outro: distortion is used here

E:---------------------------------------------------------------------------

B:----------------------------------------------------------------------------

G:----------------------------------------------------------------------------

D:---7-7-x-x-x-x-8---5---7-7-x-x-x-x-8---5--------x-x-x-x------

A:---5-5-x-x-x-x-6---3---5-5-x-x-x-x-6---3---7-7-x-x-x-x-5-8

E:--------x-x-x-x----------------x-x-x-x-----------5-5-x-x-x-x-3-6

Get this song at:  amazon.com sheetmusicplus.com

Share your thoughts

0 Comments found