Incubus

Incubus - Nice To Know You Bass guitar tab

Incubus - Nice to know you

bass tab

by : doky 2007

webmaster at tabs-database.com.com

4-stringed bass

G D A E

INTRO/VERSO

G-|----------------|----------------|

D-|-2h4-4-------44-|-2h4-4----------|

A-|-------5-555----|-------5-55---\\-|

E-|----------------|----------------|

CORO

G-|----------------|-----------------*-00-22-|

D-|-2h4-4-------44-|-2h4-4--------444*-------|

A-|-------5-555----|-------5-5-00----*-------|

E-|----------------|-----------------*-------|

PRE-CORO

G-|-------------------|----------------|-------------------|

D-|---------------0h2-|----------------|-------------------|

A-|-0--0--000-0h2-----|-0--0--000-0-0--|-------------------|

E-|-------------------|----------------|-3-333-0-2-2222-33-|

G-|-------------------|----------------|-------------------|

D-|---------------0h2-|----------------|-------------------|

A-|-0--0--000-0h2-----|-0--0--000-0-0--|-------------------|

E-|-------------------|----------------|-3-333-0-2-2222222-|

MIDDLE

G-|----------------------|

D-|----------------------|

A-|-035305---3---3---3---|

E-|----------------------|

Le mando muchas congratulaciones a la Jovena Yanina Alarcon que era del QB promo 2004 ps

tata... bien esteeee. donde estara este cuaaate, seguro va a hacer su preste

proximamente cerca de la avenida Tiwanaku - ghigante capricornio.

doky2007

Added by tabs-database.com and our distinguished partners

Get this song at:  amazon.com sheetmusicplus.com

Share your thoughts

0 Comments found