Incubus

Incubus - Southern Girl guitar tab

Song: Southern Girl

Band: incubus

Album: A crow left of the murder

Tabbed by: Olivar Brito, Coimbra (Portugal) webmaster at tabs-database.com.com

25/02/2004 3:01

Intro:

Am G C E Am G C F

e|------5--5-----3--0--------5--5-----3------------|

B|------5--0-----0--0--------5--0-----0------------|

G|------5--5-----0--1--------5--5-----0------------| (2x)

D|------7--x-----2--2--------7--x-----2---3--------|

A|------7--x--0-3---2--------7--x--0-3-----3-------|

E|--0--5---3----------1-1-0-5---3--------1--1^0-0--|

Main:

(Is everything baited hook...)

Am G C E Am G C F

e|------5--5-----3--0--------5--5-----3------------|

B|------5--0-----0--0--------5--0-----0------------|

G|------5--5-----0--1--------5--5-----0------------| (4x)

D|------7--x-----2--2--------7--x-----2---3--------|

A|------7--x--0-3---2--------7--x--0-3-----3-------|

E|--0--5---3----------1-1-0-5---3--------1--1^0-0--|

Pre-refrain and solo accompaniment (whithout arpeggio):

(we'll behave like animals...)

D Am G Dm Am G F E G

e|--5--5----5----3----3----5----5----5----5----3----3----0-----3--|

B|--5--5--5--5---3--3--3---6--6--6---5--5--5---3--3--3---0-----3--|

G|--7--5-5-5--5--4-4-4--4--7-7-7--7--5-5-5--5--4-4-4--4--2--1--4--|

D|--7--7---------5---------7---------7---------5---------3--2--5--|

A|--5--7---------5---------5---------7---------5---------3--2--5--|

E|--5--5---------3---------5---------5---------3---------1--0--3--|

Refrain:

(you're an exception to the rule...)

Am G C E Am G C F

e|------5--5-----3--0--------5--5-----3------------|

B|------5--0-----0--0--------5--0-----0------------|

G|------5--5-----0--1--------5--5-----0------------|

D|------7--x-----2--2--------7--x-----2---3--------|

A|------7--x--0-3---2--------7--x--0-3-----3-------|

E|--0--5---3----------1-1-0-5---3--------1--1^0-0--|

Am G C E F E G

e|------5--5-----3--0--------0--0--3---|

B|------5--0-----0--0--------0--0--3---|

G|------5--5-----0--1--------2--1--4---|

D|------7--x-----2--2--------3--2--5---|

A|------7--x--0-3---2--------3--2--5---|

E|--0--5---3----------1-1-0--1--0--3---|

End:

(southern girl could you want me...)

F E F E

e|--0--0--0--0-1-0--| e|--0------0--------|

B|--0--0---0----0---| B|---0------0-------|

G|--2--1----1-------| (4x) G|----2------1------|

D|--3--2------------| D|-----3------2-----|

A|--3--2------------| A|------3------2----|

E|--1--0------------| E|-------1------0---|

^- pull

Some corrections to my previous tab, still not perfect, but it is closer. EnjoyAdded by tabs-database.com and our distinguished partners

Get this song at:  amazon.com sheetmusicplus.com

Share your thoughts

0 Comments found