Incubus

Incubus - Are You In guitar tab

() - harmonic

b - bend

h - hammer on

p - pull off

/ - slide up

\\ - slide down

standard tuning

intro:

using a volume swelling effect,

play on the 7th fret harmonics on G B and e

strings and then near the end work your

way down the D A and E, using the whammy bar

to bend the last harmonic on the E down

there's also a part in the intro i swore was a

bass part but who am i to know? here it

is tabbed for guitar:

G|-------------------------------

D|--7/9--7/9----7/9--7/9----7/9--

A|--7/9--7/9----7/9--7/9----7/9--

E|-----------7-----------7-------

verse: x3 (delay,swell envelope mod fx,phaser)

e|-------------(12)--------

B|---------(12)----(7)-----

G|-------------------------

D|-----(7)-----------------

A|--(7)--------------------

E|-------------------------

e|-------------(12)--------

B|---------(12)----(7)-----

G|-------------------------

D|-----(7)-----------------

A|--(7)----------------(9)-

E|-------------------------

chorus: x2

e|--(12)----------(12)--------------

B|----------------------------------

G|----------------------------------

D|----------(7)------------(7)-(7*)-

A|------(9)------------(9)----------

E|----------------------------------

*detune with whammy

interlude: (fairly clean channel)

e|-------------------------------------------

B|-------------------------------10-10-------

G|-------------------------------------------

D|--------7--9/11--9---7-9---9b10-----10r9---

A|--7h9~~------------9-----------------------

E|-------------------------------------------

e|----------------------------------------

B|----------------------------------------

G|----------------------------------------

D|--9b--7-10-7--------------------7-------

A|-------------9-----------7--7h9----9----

E|----------------7--7h9~~----------------

e|--------------------12---------------------

B|-------10--12-12b13----13r12-----12b--10---

G|--9h11----------------------------9----9---

D|-------------------------------------------

verse x1

chorus x2

bridge: just play this pattern until the end

e|--------------------

B|--------------------

G|--------------------

D|----------(12)------

A|------(7)-----(7)---

E|--(12)--------------

verse x2

chorus x2

end with various harmonics using the same

swell/phase/delay effect

Get this song at:  amazon.com sheetmusicplus.com

Share your thoughts

0 Comments found