Incubus

Incubus - I Miss You guitar tab

Title: I Miss You

Band: Incubus

Album: Make Yourself

Tuning: (DADGBe)

Tabbed by: simpleppl@hotmail.com

------------------------------

| ^ - harmonic ~ - let ring |

| . - palm mute |

------------------------------

Intro

e|----------------------------

B|----------------------------

G|----------------------------

D|-----------------------^5~--

A|---4-5-4---4---4-5-4-5------

D|-0-------0---0--------------

Verse

e|----------------------------

B|----------------------------

G|----------------------------

D|-----------------------^5~--

A|---4-5-4---4---4-5-4-5------

D|-0-------0---0--------------

..................... 8x

Chorus

e|----------0-----------------------------------

B|----------3-----------------------------------

G|-4--7-----2--4--7--------4--7-----4--7--------

D|-4--5--0-----4--5--0-----4--5--0--4--5--------

A|-2--5--0-----2--5--0-----2--5--0--2--5--------

D|----5--0--------5--0--------5--0-----5--------

End

e|------------------------------

B|------------------------------

G|------------------------------

D|-----------------------^5-0~--

A|---4-5-4---4---4-5-4-5----0~--

D|-0-------0---0------------0~--

Intro - 4x / Verse

Verse / Chorus

Chorus / Intro - 7x

Intro - 8x / End

Get this song at:  amazon.com sheetmusicplus.com

Share your thoughts

0 Comments found