Incubus

Incubus - Vitamin bass tab

"Vitamin" by Incubus

Submitted by Chris N. (chrisnis@bellsouth.net)

-----------------------------------------------------------

This is a revised edition of the tabs from jmoore@1st.net

The only thing that I have changed is the Chorus. Everything

else appeared in his tabs

-----------------------------------------------------------

The bass begins after 15 sec. of guitar and

a bell-like noise, probably from a bell

of some sort, or possibly a metal object

shaped in the form of a cymbal...

Anyway, on to the tabs...

Intro.

G|-----------|

D|-----------|

A|-----------|

E|-0-0-0-000-|

2nd part of intro.

G|------------------|

D|------------------|

A|-7-7-----3h5------|

E|-----0-0-----0-00-|

Verse

G|-----------|

D|-----------|

A|-----------|

E|-0-0-0-000-|

Chorus

G|-----------------------------------| This is an extension to the

D|-----------------------------------| 2nd part of the intro.

A|-7-7-----3h5------5-5-----0-2------|

E|-----0-0-----3-33-----1-1-----0-00-|

Bridge

G|-----------------|

D|-2---2-----------|

A|-------3-2---2---|

E|---------------3-|

Then...

G|-----|

D|-----|

A|-----|

E|-0-0-|

Play the chorus part again...

Outro

G|------------------|

D|------------------|

A|-7-7-----3h5------|

E|-----0-0-----0-00-|

Get this song at:  amazon.com sheetmusicplus.com

Share your thoughts

0 Comments found