Incubus

Incubus - A Certain Shade Of Green Acoustic Lounge guitar tab

#-----------------------------PLEASE NOTE-------------------------------------#

#This OLGA file is the author's own work and represents their interpretation #

#of the song. You may only use this file for private study, scholarship, or #

#research. Remember to view this file in Courier, or some other monospaced #

#font. See http://www.olga.net/faq/ for more information. #

#-----------------------------------------------------------------------------#

Subject: i/incubus/a_certain_shade_of_green_acoustic_lounge.crd

Incubus: A Certain Shade Of Green (acoustic lounge version)

Tabbed by: prdawg83@arches.uga.edu

Intro and Choruses:

e|---------------------------x----x--------------x--------|

b|---7---7/-8-8-8/---7-7*----x----x--------------x--------|

g|---6---6/-7-7-7/---6-6*----7----7---------7----7--------|

d|---7---7/-8-8-8/---7-7*----7----7-(X5)---8-----8--------|

a|-5---5/---6-6-6/-5---5*----9----9-------8----8-8--------|

E|-------------------------7---7--7------6----6--6--------|

*Strum this chord slower

Verses:

e|9--9------9--9/--8--8/--7--5----5-----5------|

b|10--10----10-10/-9--9/--8--6---7-----6-------|

g|11----11--11-11/-10-10/-9--7--6--6--6--6-----|

d|---------------------------------------------|

a|---------------------------------------------|

E|---------------------------------------------|

Get this song at:  amazon.com sheetmusicplus.com

Share your thoughts

0 Comments found