Incubus

Incubus - Aqueous Tranmission guitar tab

band: incubus

song: aqueous transmission

transcribided by; FRANK PEREZ

DROP D TUNING

1-----------------------------------------------------------------------|

2-------------------10----------------------------------0------0--------|

3------------------------11----------------------------------2----------|

4--------------9---------------------^9-------7------2------------2-----|

5-----0-----------------------------0-----------------------------------|

6-0------------------------------0--------------------------------------|

1-----------------------------------------------------------------------||

2------0-------0--------------------------------------------------------||

3-----------2-----------------------------------------------------------||

4-----------------------------------------------------------------------||

5---2--------------2----------------------------------------------------||

6-----------------------------------------------------------------------||

QUIERO MANDARLE A LA BANDA HEY!!!!!!!!!!!!!!!!!!!!!!!!!!!!!!!!!!!!!!!

Get this song at:  amazon.com sheetmusicplus.com

Share your thoughts

0 Comments found