Incubus

Incubus - 11 A. M. bass tab

Incubus

11 AM

Album: Morning View

Bassist: Dirk Lance

Tabbed by Ryan Dolin (madxchump@hotmail.com)

Standard Tuning: E A D G

G/--------------------------------------------------------

D/--------------------------------------------------------

A/------333333--------55553333--------333333-000000-333333

E/00000--------000000----------000000---------------------

Verse:

G/----------------------------------------------

D/----------------------------------------------

A/-----3-------------3-------------3-------3-0-3

E/-0-3----3-0--0-0-3----3-0--0-0-3----3-0-------

Prechorus:

G/----------

D/----------

A/-3-0-3----

E/-------3-1

Bridge:

D/---------------------------

G/---------------------------

A/---------------------------

E/-1-1-1-1-1-1-1-1-0-0-0-0-0-

Get this song at:  amazon.com sheetmusicplus.com

Share your thoughts

0 Comments found