Incubus

Incubus - Anna Molly Bass guitar tab

ANNA-MOLLY (Bassline)

As recorded by Incubus

(From the 2006 Album LIGHT GRENADES)

Transcribed by Whoabot

Words and Music by Incubus

Arranged by Incubus

Gtr I (E A D G) - 'Untitled'

Intro

Q=153

4/4

Gtr I

Wx7 H. E E

|------------|-------------|

|------------|-------------|

|------------|-------------|

|------------|-----------6-|

W +H H W +Q. E E E Q

|----------|-------------|----------|------------------|

|----------|-------------|----------|------------------|

|----------|--------6----|----------|-------6-8-8-8\\---|

|-8--------|-(8)---------|-4--------|-(4)--------------|

W +H H H. +E E +H H

|----------|-------------|---------------|-------------||

|----------|-------------|---------------|-------------||

|----------|--------6----|---------------|-------------||

|-8--------|-(8)---------|-4-------(4)-1-|-(1)----3----||

Pre-Verse

E E E E q Q E E E E q Q E E E E E E E E E E Q E E Q

|---------------|-----------------|-----------------|----------------|

|---------------|-----------------|-----------------|----------------|

|-3-3-3-3-3--1--|------------/6\\--|-3-3-3---1-1-1---|--------6-6-6---|

|---------------|-3-3-3-3-3-------|-------1-------1-|-3-3-3----------|

E E E E q Q E E E E q Q E E Q E E Q

|---------------|-----------------|---------------|

|---------------|-----------------|---------------|

|-3-3-3-3-3--1--|------------/6\\--|-3-3-3--1-1-1--|

|---------------|-3-3-3-3-3-------|---------------|

a S S S S S S S S S S S S Q

|---------------------------------------------||

|---------------------------------------------||

|-8s10-10-10-10-10-10-10-10-10-10-10-10-------||

|---------------------------------------10\\---||

Verse

E E E E E q E a E E Q q Q E E E E E q E a E E Q q Q

||-----------------|----------------|----------------|----------------|

||o----------------|----------------|----------------|----------------|

||o-3-3-3-3-1-3--3-|-3s6-3-1--------|-3-3-3-3-1-3--3-|-3s6-3-1--------|

||-----------------|----------3--3--|----------------|----------3--3--|

E E E E E q E a E E Q q Q E E E E E q E E E Q Q Q

|----------------|----------------|----------------|-------------------||

|----------------|----------------|----------------|-1----------------o||

|-3-3-3-3-1-3--3-|-3s6-3-1--------|-3-3-3-3-1-3--3-|---3-1--/10-------o||

|----------------|----------3--3--|----------------|-------------10\\---||

Chorus

$

Q E E E q a E +E Q E a E E q Q Q E Q E +E E E E E E Q

|-----------------|-------------------|--------------|--------------------|

|-----------------|-------------------|--------------|--------------------|

|-3--3-3-1-3--3s6-|-(6)-3--3-3s6-6-6--|--------------|---------6-8-8-8\\---|

|-----------------|-------------------|-4--4--4-4--4-|-(4)-4-4------------|

To Coda

Q E E E q a E +E Q E a E E q Q Q E Q E +E E Q E E Q

|-----------------|-------------------|--------------|------------------||

|-----------------|-------------------|--------------|------------------||

|-3--3-3-1-3--3s6-|-(6)-3--3-3s6-6-6--|--------------|------------------||

|-----------------|-------------------|-4--4--4-4--1-|-(1)-1-1--3-3-3---||

Pre-Verse

E E E E q Q E E E E q Q E E Q E E Q E E Q E E Q

|---------------|----------------|---------------|----------------||

|---------------|----------------|---------------|-5-5-5----------||

|-3-3-3-3-3--1--|------------6\\--|-3-3-3--1-1-1--|--------6-6-6---||

|---------------|-3-3-3-3-3------|---------------|----------------||

Verse

E E E E E q E a E E Q q Q E E E E E q E a E E Q q Q

||-----------------|----------------|----------------|----------------|

||o----------------|----------------|----------------|----------------|

||o-3-3-3-3-1-3--1-|-3s6-3-1--------|-3-3-3-3-1-3--1-|-3s6-3-1--------|

||-----------------|----------3--3--|----------------|----------3--3--|

D.S. al Coda

E E E E E q E a E E Q q Q E E E E E q E E E Q Q Q

|----------------|----------------|----------------|-------------------||

|----------------|----------------|----------------|-1----------------o||

|-3-3-3-3-1-3--1-|-3s6-3-1--------|-3-3-3-3-1-3--1-|---3-1--/10-------o||

|----------------|----------3--3--|----------------|-------------10\\---||

Chorus Extension

&

Q E E E q a E +E Q E a E E E E Q Q E Q E +E E E E E E Q

|-----------------|--------------------|--------------|--------------------|

|-----------------|--------------------|--------------|--------------------|

|-3--3-3-1-3--3s6-|-(6)-3--3-3s6-6-6---|--------------|---------6-8-8-8\\---|

|-----------------|------------------6-|-4--4--4-4--4-|-(4)-4-4------------|

Q E E E q a E +E Q E a E E E E Q Q E Q E +E E Q E E Q

|-----------------|--------------------|--------------|------------------||

|-----------------|--------------------|--------------|------------------||

|-3--3-3-1-3--3s6-|-(6)-3--3-3s6-6-6---|--------------|------------------||

|-----------------|------------------6-|-4--4--4-4--1-|-(1)-1-1--3-3-3---||

Bridge

Q Q E E E E +Q Q E E Q Q Q E E E E +Q Q E E E E

|---------------|------------------|---------------|------------------|

|---------------|------------------|---------------|------------------|

|-6--6--6-6-6-6-|-(6)--6--10-8-6\\--|---------------|---------8-6------|

|---------------|--------------6\\--|-8--8--8-8-8-8-|-(8)--8------8-6--|

Q Q E E E E +E E Q E Q. Q Q E E E E +Q Q E E E E

|---------------|-----------------|---------------|------------------|

|---------------|-----------------|---------------|------------------|

|-6--6--6-6-6-6-|-(6)-6-6--6-6----|-3--3--3-3-3-3-|-(3)--3--3p1-3p1--|

|---------------|----------6-6----|---------------|------------------|

Q Q Q Q Q Q Q Q Q Q Q Q Q Q Q Q

|-------------|-------------|-------------|--------------|

|-------------|-------1--1--|-------------|--------------|

|-3--3--3--3--|-3--3--------|-3--3--3--3--|-3--3--3--3---|

|-------------|-------------|-------------|--------------|

Q Q Q Q Q Q Q Q Q Q Q E E Q Q Q Q

|-------------|-------------|--------------|--------------||

|-------------|-------------|-------1------|--------------||

|-------------|-------------|-3--3-----3-1-|-3--3--3--3---||

|-4--4--4--4--|-4--4--1--1--|--------------|--------------||

nterlude

E E E Q E E E E E E q E Q E E E Q q E +E q e Q Q

||-----------------|---------------|---------------|-----------------||

||o----------------|---------------|---------------|----------------o||

||o-3p1h3-6--6-6-3-|-3p1h3-6--8-8--|-3p1h3-6--6----|--------8-8--8--o||

||-----------------|---------------|-------------4-|-(4)-6-----------||

E E E Q E E E E E E q E Q E E E Q q E +E q e Q a Q

|----------------|---------------|---------------|----------------------||

|----------------|---------------|---------------|----------------------||

|-3p1h3-6--6-6-3-|-3p1h3-6--8-8--|-3p1h3-6--6----|--------8-8--(8)s11\\--||

|----------------|---------------|-------------4-|-(4)-6----------------||

Pre-Chorus

Wx7 Q. Q E Q

|------------|------------------|

|------------|------------------|

|------------|------/8\\----/8\\--|

|------------|-----------8------|

Out-Chorus

Q E E E q a E +E Q E a E E E E Q Q E Q E +E E E E E E Q

|-----------------|--------------------|--------------|--------------------|

|-----------------|--------------------|--------------|--------------------|

|-3--3-3-1-3--3s6-|-(6)-3--3-3s6-6-6---|--------------|---------6-8-8-8\\---|

|-----------------|------------------6-|-4--4--4-4--4-|-(4)-4-4------------|

Q E E E q a E +E Q E a E E E E Q Q E Q E +E E Q E E E E

|-----------------|--------------------|--------------|-------------------||

|-----------------|--------------------|--------------|-------------------||

|-3--3-3-1-3--3s6-|-(6)-3--3-3s6-6-6---|--------------|----------------1--||

|-----------------|------------------6-|-4--4--4-4--1-|-(1)-1-1--3-3-4----||

Outro

Q E E E q a E +E Q E a E E E E Q Q E Q E +E E E E E E E E

||------------------|--------------------|--------------|--------------------||

||o-----------------|--------------------|--------------|-------------------o||

||o-3--3-3-1-3--3s6-|-(6)-3--3-3s6-6-6---|--------------|---------------1---o||

||------------------|------------------6-|-4--4--4-4--1-|-(1)-1-1-1-3-3---3--||

E E E E q Q E E E E q Q E E Q E E Q

|---------------|-----------------|---------------|

|---------------|-----------------|---------------|

|-3-3-3-3-3--1--|------------/6\\--|-3-3-3--1-1-1--|

|---------------|-3-3-3-3-3-------|---------------|

a S S S S S S S S S S S S S S S S Wx4

|---------------------------------------------------|--------*|

|---------------------------------------------------|--------*|

|-8s10-10-10-10-10-10-10-10-------------------------|--------*|

|---------------------------10-10-10-10-10-10-10-10-|--------*|

Duration Legend

---------------

W - whole; H - half; Q - quarter; E - 8th; S - 16th; T - 32nd; X - 64th; a - acciaccatura

+ - note tied to previous; . - note dotted; .. - note double dotted

Uncapitalized letters represent notes that are staccato (1/2 duration)

Irregular groupings are notated above the duration line

Duration letters will always appear directly above the note/fret number it represents the

duration for. Duration letters with no fret number below them represent rests. Multi-

bar rests are notated in the form Wxn, where n is the number of bars to rest for. Low

melody durations appear below the staff

Tablature Legend

----------------

h - hammer-on

p - pull-off

b - bend

pb - pre-bend

r - bend release (if no number after the r, then release immediately)

/\\ - slide into or out of (from/to "nowhere")

s - legato slide

S - shift slide

Added by tabs-database.com and our distinguished partners

Get this song at:  amazon.com sheetmusicplus.com

Share your thoughts

0 Comments found