Incubus

Incubus - Steller Make Yourself bass tab

Intro

G--------------------------------------------------------

D--------------------------------------------------------

A----44----44--44--44-----555555555555-----------------

E--55---55---55--55--------------------77777777777-------

Chorus

G-------------------------------

D-----------66---6-7--------------

A--------44----5------------------

E---5555-------------------------

Interlude

G----------------------------4h5p4-----------

D---------7-7-7-7-----------------4h6p4------

A--------7-7-7-7-----------------------------

E---55------------------005------------------

Verse

G----------------------------------

D----------------6-7---------------

A-----44----44-5-------------------

E---55---55------------------------

Bridge

G---------------------------------

D---------------------------------

A---------------------------------

E--5-55-5-3-33-3-0-00-0-3-33------

Outro

G---------------------------------

D----------66---6-7-----------------

A-------44----5---------------------

E---------------------------------

Heres how the order goes

Intro x1

Chorus x4

Interlude x2

Verse x4

Chorus x6

Bridge x2

Chorus x8

Get this song at:  amazon.com sheetmusicplus.com

Share your thoughts

0 Comments found