Incubus

Incubus - No Scrubs guitar tab

Artist: Incubus

Song: No Scrubs from Incubus Live @ MTV Acoustic

Email: sKiPpY1034@hotmail.com

e:----------------1---------------------0-----------

B:------------1---------------------1---------------

G:--------2---------------------2-------------------

D:----0---------------------------------------------

A:-------------------------0------------------------

E:--------------------------------------------------

e:-----------------------------------------1--------

B:----------------3--------------------1------------

G:------------2--------------------2----------------

D:--------0--------------------0--------------------

A:--------------------------------------------------

E:----0---------------------------------------------

e:----1p0------0------------------------------------

B:---------3----------------------------------------

G:--------------------------------------------------

D:--------------------------------------------------

A:--------------------------------------------------

E:--------------------------------------------------

*~Good luck and have fun~*

-/-/- `&' -/-/-/-/-/-/-/-/-/-/-/-/-/-/-/-/-/-/-/-/-/-/-

-- # --

-- # Comments,corrections,questions,comments,--

-- _#_ and etc. --

-- ( # ) --

-- / O John K. (skippy1034@hotmail.com) --

-- ( === ) --

-/-/ `---' -/-/-/-/-/-/-/-/-/-/-/-/-/-/-/-/-/-/-/-/-/-/

Get this song at:  amazon.com sheetmusicplus.com

Share your thoughts

0 Comments found