Incubus

Incubus - Rogues Bass guitar tab

Band-> Incubus

Album-> Light Grenades

Song-> Rogues

Bassist-> Ben Kenney

Tabbed by-> Fried Cheese

standard tuning. 4 string Bass

I hope this is right.

First its mike playing then:

Intro

(Maybe I'm hearing things but I think this part is in the song)

G|---------------------------------------------------------------------------|

D|---------------------------------------------------------------------------|x2

A|---9-7--------9-5----------------------------------------------------------|

E|---------------------------------------------------------------------------|

This is surely part of the song)

G|---------------------------------------------------------------------------|

D|---------------------------------------------------------------------------|

A|---------5---------5--------------5---------5-------------5---------5------|

E|-7-7-5h7---5h7p5h7---55---7-7-5h7---5h7p5h7---55---7-7-5h7---5h7p5h7---55--|

G|---------------------------------------------------------------------------|

D|---------------------------------------------------------------------------|

A|---------5555555555--------------------------------------------------------|

E|-7-7-5h7-------------------------------------------------------------------|

(2 times)

Verse

G|---------------------------------------------------------------------------|

D|---------------------------------------------------------------------------|

A|--------------------7-7-77--------------------------7-7-77--10-10-1010-----|

E|--7-7-77--7-7-77----------3----3h5--7-7-77--7-7-77-------------------------|

G|---------------------------------------------------------------------------|

D|---------------------------------------------------------------------------|

A|---------10-10-1010--9-9-99--7-7-77--6-6-66--5-5-55------------------------|

E|--7-7-77-------------------------------------------------------------------|

Chorus

G|---------------------------------------------------------------------------|

D|---------------------------------------------------------------------------|

A|--10---------------------999---------9999----------------------------------|x3

E|----------7-------10-10--------10-10---------------------------------------|

(final time add this)

G|---------------------------------------------------------------------------|

D|---------------------------------------------------------------------------|

A|----------9999--------99999------------------------------------------------|

E|---10-10--------10-10------------------------------------------------------|

before verse:

G|---------------------------------------------------------------------------|

D|---------------------------------------------------------------------------|

A|---------5---------5--------------5---------5-------------5---------5------|

E|-7-7-5-7---5-7-5-7---55---7-7-5-7---5-7-5-7---55---7-7-5-7---5-7-5-7---55--|

G|---------------------------------------------------------------------------|

D|---------------------------------------------------------------------------|

A|---------5555555555--------------------------------------------------------|

E|-7-7-5-7-------------------------------------------------------------------|

Verse...

Chorus...

Breakdown (I don't really know if that's how Ben plays it in the album. It looks like I

extra notes, but when he plays

live it kinda sounds like this)

G|---------------------------------------------------------------------------|

D|--9-7------97---97----8-6------86---86-------------------------------------|

A|------9------9----9-------8------8----8------------------------------------|

E|--------7-----7----7--------6-----6----6-----------------------------------|

G|---------------------------------------------------------------------------|

D|---------------------8-6------86----86-------------------------------------|

A|--7-7-77-7-77777777------8------8-----8------------------------------------|

E|---------------------------6-----6-----6-----------------------------------|

G|---------------------------------------------------------------------------|

D|--9-9-99-9999999-8-8-88-8888888--------------------------------------------|

A|--------------------------------88888888-8-7-6-5-8-7-5--88888888-8/12------|

E|---------------------------------------------------------------------------|

G|---------------------------------------------------------------------------|

D|---------------------------------------------------------------------------|

A|--1414-12h14-12-12h14-12h14-12---1414-12h14-12-12h14-12h14-12--------------|

E|---------------------------------------------------------------------------|

G|---------------------------------------------------------------------------|

D|---------------------------------------------------------------------------|

A|-1414-12h14-12-12h14-12h14-12---1414-12h14-12-12121212121212\\--------------|

E|---------------------------------------------------------------------------|

Chorus....

| / slide up

| \\ slide down

| h hammer-on

| p pull-off

| ~ vibrato

| + harmonic

| x Mute note

===============================================================================Added by tabs-database.com and our distinguished partners

Get this song at:  amazon.com sheetmusicplus.com

Share your thoughts

0 Comments found