Incubus

Incubus - When Incubus Attacks bass tab

This is good song and the bass lines are awesome. But there is only one

part im not sure about. I'll show ya when u get there.

INTRO / CHORUS

^^^^^ ^ ^^^^^^

G|----------------------------------------|x2 then

D|----------------------------------------|

A|----------------------------------------|

E|5--5--5-5---5-5--5-5-/-9-9-9-/-12-12-12-|

G|---------------------------------------|

D|---------------------------------------|

A|---------------------------------------|

E|-XXX-5-5---5-5--5-5-/-9-9-9-/-12-12-12-|

G|----------------------------------|

D|----------------------------------|

A|----------------------------------|

E|-5-5-5-5-5-5-5-5-12-12-12-9-9-9-9-|

VERSE

^^^^^

G|----------------------11---11h12p11|--------------------------|

D|-------12--------------------------|-------12-----------------|

A|----------------12-----------------|-------------12-----------|

E|10---------------------------------|-10---------------7----5/-|

INTERLUDE #1

^^^^^^^^^ ^^

G|------------------------------|

D|-------5--3----3--------------|

A|----3--------5----------------|

E|--3---------------5-5-5-/-7-7-|

INTERLUDE #2 (right after interlude 1)(this may not be right)

^^^^^^^^^ ^^

G|------------------------------------|

D|------------------------------------|

A|-5-5-55--5-5--5-5-5-3-3-3-3---------|

E|----------------------------5-3-2-0-|

G|--------------------------------------------|

D|--------------------------------------------|

A|-5-5-55--5-5--5-5-5-------------------------|

E|--------------------5-5-5-5-5-5-5-5-5-5-5-5-|

Get this song at:  amazon.com sheetmusicplus.com

Share your thoughts

0 Comments found