Incubus

Incubus - Pardon Me2 guitar tab

pardon_me2.tab100% correct if you say it aint your wrong!!!

Incubus

pardon me

make yourself

ntro/ pre verse/ bridge

(play 2x)--------------------------------------------------|

e--0-------------0--------------0-------------0--------------0------------------

B--0-------------0--------------0-------------0--------------0--------7------7--

G--4-------------4--------------4-------------4--------------6--------4------4--

D--2-------------2--------------2-------------2-----------------------6------6--

A--4-------------4--------------4-------------4------------------------------7--

E----------------5----------------------------5---------------------------------

(note play the chord while volume knob on 1 then slowly

move it up then when ready to play next chord move it back

to 1)

Chorus

(play 2x)----------------------------------------|

e-4------------2-------0----------------------------------4----4---------------0------2------

B-4------------2-------0----------------------------------4----4---------------0------2------

G-6------------4-------2----------------------------------6----6---------------2------4------

D-6-/-/-/-/----4-/-/---2-/-/-/-/-/-/-/---4-2-/-/----2-/-/-6----6-/-/-/-/-/-/---2-/-/--4-/-/--

A-4------------2-------0-----------------4-2-----4--2-----4----4---------------0------2------

E----------------------------------------2-0-----2--0----------------------------------------

Get this song at:  amazon.com sheetmusicplus.com

Share your thoughts

0 Comments found