Incubus

Incubus - Drive4 guitar tab

drive4.tabheres the way they play it in the video....just part of it though....thats just the verse chords

if you know the bridge and solo hook me up please..and watch the video before you send tabs

e-------0-0-0----5------3-3-3-------------------------

B-------8-8-8----7------5-5-5--1------------------------

G-------0-0-0----7------5-5-5--2-----------------

D----9--9-9-9----7----5-5-5-5--2----

A--7----7-7-7--5-5--3---3-3-3-0-

E--------------------------------

e----------------------------------------------------------------------

B----------------------------------------------------------------------

G----------------------------------------------------------------------

D----------------------------------------------------------------------

A----------------------------------------------------------------------

E----------------------------------------------------------------------

e----------------------------------------------------------------------

B----------------------------------------------------------------------

G----------------------------------------------------------------------

D----------------------------------------------------------------------

A----------------------------------------------------------------------

E----------------------------------------------------------------------

Get this song at:  amazon.com sheetmusicplus.com

Share your thoughts

0 Comments found