Incubus

Incubus - Echo Solo guitar tab

alright this solo is using harp harmonics. it is played by putting your finger on the

indicated fret and with the pick hand gently rest a finger on the fret in the parentheses.

when you bend, bend with the hand that is pressing on the fret. it might

be hard at first but you'll get the hang of it

H.H.-Harp Harmonic

b-bend

H.H.

e--7(19)-----------------------------------------------

b---------10(22)--7(19)--------------------------------

g------------------------9(21)b--7(19)-----------------

d---------------------------------------9(21)b--7(19)--

a------------------------------------------------------

e------------------------------------------------------

e--------------------------------

b--------------------------------

g--------------------------------

d--9(21)-------------------------

a-----------7(19)--9(21)--7(19)--

e--------------------------------

e----------------------------------------------------------------------------

b----------------------------------------------------------------------------

g------------------------------7(19)-9(21)-7(19)----7(19)-9(21)-7(19)-9(21)--

d----------------7(19)-9(21)-------------------------------------------------

a--7(19)-9(21)---------------------------------------------------------------

e----------------------------------------------------------------------------

e-----------7(19)-------------------------------------

b--7(19)----------10(22)------------------------------

g-------------------------7(19)-9(21)b--7(19)---------

d----------------------------------------------9(21)--

a-----------------------------------------------------

e-----------------------------------------------------

Get this song at:  amazon.com sheetmusicplus.com

Share your thoughts

0 Comments found