Incubus

Incubus - Blood On The Ground guitar tab

Artist: Incubus

Song: Just A Phase

Album: Morning View

Tabbed By: pras@optonline.net

Tuning: Drop D

Intro (With Distortion)

E|---0----|

B|---7^---|

G|---5^---|

D|---X----|

A|---0----|

D|---0----|

Chorus (With Distortion)

E|-X-X---0---X-0---X-0---X-0---------------|

B|-X-X---7---X-7---X-7---X-7---------------|

G|-X-X---5---X-5---X-5---X-5---------------|

D|-X-X---0---X-0---X-0---X-0---X/9-9-3-3-0-|

A|-X-X---0---X-0---X-0---X-0---X/9-9-3-3-0-|

D|-X-X---0---X-0---X-0---X-0---X/9-9-3-3-0-|

E|-0---X-0---X-0---X-0---------------|-0---X-0---X-0---X-0---------------|

B|-7---X-7---X-7---X-7---------------|-7---X-7---X-7---X-7---------------|

G|-5---X-5---X-5---X-5---------------|-5---X-5---X-5---X-5---------------|

D|-0---X-0---X-0---X-0---X/9-9-3-3-0-|-0---X-0---X-0---X-0---X/9-9-3-3-0-|

A|-0---X-0---X-0---X-0---X/9-9-3-3-0-|-0---X-0---X-0---X-0---X/9-9-3-3-0-|

D|-0---X-0---X-0---X-0---X/9-9-3-3-0-|-0---X-0---X-0---X-0---X/9-9-3-3-0-|

E|-0---X-0---0-0---X--0--------------------------|

B|-7---X-7---7-7---X--7--7^--7^--7^--7^--7^--7^--|

G|-5---X-5---5-5---X--5--5^--5^--5^--5^--5^--5^--|

D|-0---X-0---0-0---X--0--------------------------|

A|-0---X-0---0-0---X--0--------------------------|

D|-0---X-0---0-0---X--0--------------------------|

E|-0---X-0---X-0---X-0---------------|-0---X-0---X-0---X-0---------------|

B|-7---X-7---X-7---X-7---------------|-7---X-7---X-7---X-7---------------|

G|-5---X-5---X-5---X-5---------------|-5---X-5---X-5---X-5---------------|

D|-0---X-0---X-0---X-0---X/9-9-3-3-0-|-0---X-0---X-0---X-0---X/9-9-3-3-0-|

A|-0---X-0---X-0---X-0---X/9-9-3-3-0-|-0---X-0---X-0---X-0---X/9-9-3-3-0-|

D|-0---X-0---X-0---X-0---X/9-9-3-3-0-|-0---X-0---X-0---X-0---X/9-9-3-3-0-|

E|-0---X-0---X-0---X-0---------------|-0---X-0---X-0---X-0---X-0--X-0-|

B|-7---X-7---X-7---X-7---------------|-7---X-7---X-7---X-7---X-7--X-7-|

G|-5---X-5---X-5---X-5---------------|-5---X-5---X-5---X-5---X-5--X-5-|

D|-0---X-0---X-0---X-0---X/9-9-3-3-0-|-0---X-0---X-0---X-0---X-0--X-0-|

A|-0---X-0---X-0---X-0---X/9-9-3-3-0-|-0---X-0---X-0---X-0---X-0--X-0-|

D|-0---X-0---X-0---X-0---X/9-9-3-3-0-|-0---X-0---X-0---X-0---X-0--X-0-|

Interlude (With Distortion)

E|-0---0-0---X-0---0-0---------------|-0---0-0---X-0---0-0---------------|

B|-7---7-7---X-7---7-7---------------|-7---7-7---X-7---7-7---------------|

G|-5---5-5---X-5---5-5---------------|-5---5-5---X-5---5-5---------------|

D|-0---0-0---X-0---0-0---X/9-9-3-3-0-|-0---0-0---X-0---0-0---X/9-9-3-3-0-|

A|-0---0-0---X-0---0-0---X/9-9-3-3-0-|-0---0-0---X-0---0-0---X/9-9-3-3-0-|

D|-0---0-0---X-0---0-0---X/9-9-3-3-0-|-0---0-0---X-0---0-0---X/9-9-3-3-0-|

E|-0---0-0---X-0---0-0---------------|---------------------------------|------------------------------|

B|-7---7-7---X-7---7-7---------------|---------0-----0-----------------|--------0---0-----------------|

G|-5---5-5---X-5---5-5---------------|---------0-----0-----------------|--------0---0-----------------|

D|-0---0-0---X-0---0-0---X/9-9-3-3-0-|-3--3-3-----3--3---3-3-3-3-3-3-0-|-3--3-3---3-3---3-3-3-3-3-3-3-|

A|-0---0-0---X-0---0-0---X/9-9-3-3-0-|-5--5-5-----5--5---3-3-3-3-3-3-0-|-5--5-5---5-5---3-3-3-3-3-3-3-|

D|-0---0-0---X-0---0-0---X/9-9-3-3-0-|-5--5-5-----5--5---3-3-3-3-3-3-0-|-5--5-5---5-5---3-3-3-3-3-3-3-|

Verse (Clean Tone) 3rd and 4th times, play w/ flanger

E|--------------------------------|-------------------------------|

B|--------------------------------|-------------------------------|

G|--------------------------------|-------------------------------|

D|------0-------7-------5-------5-|-----0-------7-------5-------5-|

A|----0---0---7---0---3---0---3---|----0---0---7---0---3---0---3--|

D|--0-------7-------5-------3-----|--0-------7-------5-------3----|

(With Distortion) End of verse

E|------------------------------|

B|------------------------------|

G|------------------------------|

D|-9-9-9-5-5-5-3---3-3-3---3--0-|

A|-9-9-9-5-5-5-3---3-3-3---3--0-|

D|-9-9-9-5-5-5-3---3-3-3---3--0-|

Bridge (With Distortion)

E|------------------------------|---------------------|

B|------------------------------|---------------------|

G|------------------------------|---------------------|

D|-9-9-9-5-5-5-3---3-3-3---3--0-|-9-9-9-5-5-3---3-3-3-|

A|-9-9-9-5-5-5-3---3-3-3---3--0-|-9-9-9-5-5-3---3-3-3-|

D|-9-9-9-5-5-5-3---3-3-3---3--0-|-9-9-9-5-5-3---3-3-3-|

E|-----------------------------|------------------------------|

B|-----------------7^--7^--7^--|------------------------------|

G|-----------------5^--5^--5^--|------------------------------|

D|-----------------------------|-0---0---0-0---0--X/9-9-3-3-0-|

A|-----------------------------|-0---0---0-0---0--X/9-9-3-3-0-|

D|-----------------------------|-0---0---0-0---0--X/9-9-3-3-0-|

E|------------------------------|------------------------------|

B|------------------------------|------------------------------|

G|------------------------------|------------------------------|

D|-0---0---0-0---0--X/9-9-3-3-0-|-0---0---0-0---0--X/9-9-3-3-0-|

A|-0---0---0-0---0--X/9-9-3-3-0-|-0---0---0-0---0--X/9-9-3-3-0-|

D|-0---0---0-0---0--X/9-9-3-3-0-|-0---0---0-0---0--X/9-9-3-3-0-|

E|--------------------------------------|

B|--------------------------------------|

G|--------------------------------------|

D|-0---0---0-0--0-0-3-3-3---------------|

A|-0---0---0-0--0-0-3-3-3---------------|

D|-0---0---0-0--0-0-3-3-3-3-3^--3^------|

(With Clean Tone)

E|-----------------------------------|

B|-----------------------------------|

G|-------------0---------------------|

D|-------3-------------------3-------|

A|----5-----5-------------------0--0-|

D|-5----------------------5----------|

E|--------------------------------|---------------------------|-0--------------------|

B|------------------------7--7^---|-------------------------7-|---------------0--0---|

G|-------------0----------5--5^---|----------------------5----|---------------0--0---|

D|-------0------------------------|-------------------0-------|---------------0--0---|

A|----8-----0---------------------|---------------------------|----------------------|

D|-9------------------------------|---------------------------|----------------------|

E|-------------------------------------|-------------------------------|

B|-------------------------------------|-------------------------------|

G|-------------------------------------|-------------0-----------------|

D|-------3-----0--------------3--------|-------0-----------------------|

A|----5-----5---------------------0--0-|----8-----8--------------------|

D|-5----------------------5------------|-9---------------9-----9--9--9-|

Outro (With Distortion

E|-------------------------------|-------------------------------------------|

B|-------------------------------|---------------7-7--7^--7^--7^--7^--7^--7^-|

G|-------------------------------|---------------5-5--5^--5^--5^--5^--5^--5^-|

D|-0----0---0-0---0--X/9-9-3-3-0-|-0---0---0--0------------------------------|

A|-0----0---0-0---0--X/9-9-3-3-0-|-0---0---0--0------------------------------|

D|-0----0---0-0---0--X/9-9-3-3-0-|-0---0---0--0------------------------------|

E|----------------------|----------------------|--------------------------------------------|

B|-7--------------------|----------------------|--------------------------------------------|

G|-5--------------------|----------------------|--------------------------------------------|

D|-0--------------------|-(0)------------------|--------X~~~~------------------------------|

A|-0--------------------|-(0)------------------|-----------------X~~~~--------------X~~~~-|

D|-0--------------------|-(0)------------------|-X~~~~----------------------X~~~~---------|

Get this song at:  amazon.com sheetmusicplus.com

Share your thoughts

0 Comments found