Incubus

Incubus - Calgone guitar tab

------------------------------------------------------------------------

Song: Calgone

Band: Incubus

Album: S.C.I.E.N.C.E.

Transcribed by: Wes Adams (Snwb0rdguy@aol.com)

------------------------------------------------------------------------

Intro:(w/clean phaser effect)

||

|p.m.| |p.m.>>|

E|--------------------------------------------------|

B|--------------------------------------------------|

G|--4-4-4---------2-2-2---4-4-4---------------------|

D|--4-4-4--4-4-4--2-2-2---4-4-4--4-4-4-4------------|

A|--2-2-2--4-4-4--0-0-0---2-2-2--4-4-4-4------------|

E|---------2-2-2-----------------2-2-2-2------------|

Verse:(w/phaser distortion)play 4 times before 2nd Verse

E|------------3-----------------------3-----------------|

B|------------3-----------------------3-----------------|

G|--x-x-3h-4--3--x-x-3h-4---x-x-3h-4--3--x-x-3h-4-------|

D|------------------------3------------------------3----|

A|------------------------3------------------------3----|

E|------------------------1------------------------1----|

2nd Verse:(w/phaser effect)

|let ring ~~~~~~~~~~~~~~~~~~~~~~~~~~~~~~~~~~~~

E|-------------------------------------------------|

B|-------------------------------------------------|

G|---3-----------3-----------3------------3--------|

D|-------------------------------------------------|

A|-------------------------------------------------|

E|-------------------------------------------------|

Chorus:(w/distortion)

|>|

|p.m.| |p.m.>>|

E|--------------------------------------------------|

B|--------------------------------------------------|

G|--4-4-4---------2-2-2---4-4-4---------------------|

D|--4-4-4--4-4-4--2-2-2---4-4-4--4-4-4-4------------|

A|--2-2-2--4-4-4--0-0-0---2-2-2--4-4-4-4------------|

E|---------2-2-2-----------------2-2-2-2------------|

For more tabs, go to http://www.angelfire.com/bc/paulsworld

Get this song at:  amazon.com sheetmusicplus.com

Share your thoughts

0 Comments found