Incubus

Incubus - Southern Girl Solo guitar tab

Souther Girl

Standard Tuning

Solo

(1:18)

e|----------------------------------------------------------8---------8--|

B|---------------------------------5-5---8-10-8-10-8-10-8-10----8-10-----|

G|--5/7--5-7-5/7---------------5-7--7------------------------9-9-----9-9-|

D|---------------5-5/2-2-2-2--------------------------------------------|

A|-----------------------------------------------------------------------|

E|-----------------------------------------------------------------------|

(1:31)

e|-----------------------------------------------------------------------|

B|-----------------------------------------------------------------------|

G|--7-5/4-4/5-4-------5---7-5---5---------7-7p5--------------------------|

D|--------------5-5/7---7-----7---7-7p5-5--------------------------------|

A|----------------------------------------------7------------------------|

E|-----------------------------------------------------------------------|

tabbed by a.g.

Get this song at:  amazon.com sheetmusicplus.com

Share your thoughts

0 Comments found