Blink 182

Wishing Well Bass Tabs



More from Blink 182

Blink 182 Tabs
Blink 182 Chords
Blink 182 Bass
Blink 182 Lyrics

Intro


G |--------------------------------|
D |--------------------------------|
A |---0--8--3--5-------------------|
E |--------------------------------|

Verse

G |------------------------------------|
D |------------------------------------|
A |---0--8--3--5------0-----3--5-------|
E |-------------------------1----------|

prechorus

G |---------------------------------------------|
D |---------------------------------------------|
A |---7--8--3--5---7-7-7-7-7-8---3-5------------|
E |---------------------------------------------|

Chorus #1

G |--------------------------------|
D |--------------------------------|
A |----3--------------8------------|
E |---------3---5------------------|


Bridge

G |------------------------------------------------|
D |------------------------------------------------|
A |----5----8----3----------5--------3----10-------|
E |-------------------3-----------1----------------|

Last chorus

G |---------------------------------------------------------------------------|
D |--------5------5-------7-------3--------------5------5-----7----3----------|
A |----3--------------0-----------------------3-------------0-----------------| x2
E |------------3---------------1----------------------3-----------------------|
Get this song at amazon.com      Ebay     Ringtones Ringtones  


Learn to play: Songwriting, Piano, Harmonica, Guitar
More Blink 182 lyrics available at Muzikum

Related Blink 182 Bass Tabs

Satans Theme bass
T V bass
My Pet Sally bass
Happy Holidays You Bastard bass
Action(feeling This) bass
Even If She Falls bass
Mark Tom And Travis Show bass
Stay Together For The Kids (with Optional Second Verse) bass
I Know A Guy Tom, Mark, And Travis Show bass
The Rockshow bass
Transvestite bass
Lemmings bass
Dude Ranch Full Album - Bass Tab bass
Carosel bass
Boring bass
13 Miles bass
Happy Holidays U B****** bass
Going Away To College bass
Good Times bass
Always (perfect) bass


Guitar Tabs









All tabs are property and copyright of their owners. All tabs provided for educational purposes only. Privacy Policy, DMCA