Blink 182

Blink 182 - Story Of A Lonely Guy bass tab

Artist: Blink 182

Song: "The Story of a Lonely Guy"

Album: Take Off Your Pants and Jacket

Tabber: Matt Trahan

Intro:

G----------------------------------------------------------------:

D-----------------2-2-2-2-2-2-2-2-----------------0-0-0-0-0-0-0-0:

A-0-0-0-0-0-0-0-0-----------------4-4-4-4-4-4-4-4----------------:

E----------------------------------------------------------------:

Verse:

G----------------------------------------------------------------:

D----------------------------------------------------------------:

A-0-0-0-0-0-0-0-0-2-2-2-2-2-2-2-2-4-4-4-4-4-4-4-4-5-5-5-5-5-5-5-5:

E----------------------------------------------------------------:

Pre-Chorus

G----------------------------------------------------------------:

D-----------------0-0-0-0-0-0-0-0-----------------2-2-2-2-2-2-2-2:

A-4-4-4-4-4-4-4-4-----------------0-0-0-0-0-0-0-0----------------:

E----------------------------------------------------------------:

Chorus:

G----------------------------------------------------------------:

D-----------------2-2-2-2-2-2-2-2-----------------0-0-0-0-0-0-0-0:

A-0-0-0-0-0-0-0-0-----------------4-4-4-4-4-4-4-4----------------:

E----------------------------------------------------------------:

Bridge:

G----------------------------------------------------------------:

D---------------------------------2-2-2-2-2-2-2-2-2-2-2-2-2-2-2-2:

A-4-4-4-4-4-4-4-4-2-2-2-2-2-2-2-2--------------------------------: X2

E----------------------------------------------------------------:

G------------------------------------------------------------------------------------------------

D-----------------0-0-0-0-0-0-0-0-2-2-2-2-2-2-2-2------------------------------------------------

A-4-4-4-4-4-4-4-4---------------------------------0-0-0-0---------4-4-4-4-4-4-4-4-2-2-2-2-2-2-2-2

E---------------------------------------------------------4-4-4-4--------------------------------

Order:

Intro X2

Verse X4

Pre Chorus X2

Chorus X4

Intro X2

Verse X4

Pre-Chorus X2

Chorus X4

Bridge

Chorus X 6 except on 6th time play :

G----------------------------------------------------------------------------------:

D-----------------2-2-2-2-2-2-2-2-----------------0-0-0-0-0-0-0-0-0-0-0-0-0-0-0-0--:

A-0-0-0-0-0-0-0-0-----------------4-4-4-4-4-4-4-4---------------------------------0:

E----------------------------------------------------------------------------------:

Once again another awesome but easy song. BLink is the best. All the

bridge is right.

It might sound wrong, but it's what he's playing. Any Questions email

blink045@hotmail.com

Get this song at:  amazon.com sheetmusicplus.com

Share your thoughts

0 Comments found