Blink 182

Blink 182 - Freak Scene Solo guitar tab

8.- Blink 182 - Freak Scene - Flyswatter Demo

A strange song, you must download it from Napster to hear it. I understand only the solo,

it's really messy, but it sounds right for me.

Solo 1

e|----------------------------------------------------------------------

B|----------------------------------------------------------------------

G|----------------9-8-9/11~--12-12-12--11-11--9--8-8-6-6-7-7-8----9-9-9-

D|---12--12-12-12-------------------------------------------------------

A|----------------------------------------------------------------------

E|----------------------------------------------------------------------

e|----------------------------------------------------------------------

B|----------------------------------------------------------------------

G|---11--10--9--9-9-9-7--5---4h5-6-4h5-6-4h5-6--4-4-5-5p6-4-------------

D|----------------------------------------------------------------------

A|----------------------------------------------------------------------

E|----------------------------------------------------------------------

e|----------------------------------------------------------------------

B|----------------------------------------------------------------------

G|------------------------9-9--10-10-9-8--7--8-7-5--4-4-5--5--7---------

D|---12--12-10-8--10--12------------------------------------------------

A|----------------------------------------------------------------------

E|----------------------------------------------------------------------

e|----------------------------------------------------------------------

B|----------------------------------------------------------------------

G|---4-4-5--5/6-9--13-13-11-10--11-13--11-10---------------------------

D|----------------------------------------------------------------------

A|----------------------------------------------------------------------

E|----------------------------------------------------------------------

Solo 2

e|----------------------------------------------------------------------

B|----------------------------------------------------------------------

G|---13--13-13-13--11-10--13--13-13-13-13-11-10--11-11-11-11--10-11-13--

D|----------------------------------------------------------------------

A|----------------------------------------------------------------------

E|----------------------------------------------------------------------

e|----------------------------------------------------------------------

B|----------------------------------------------------------------------

G|---13-137-7-8-8-10--8--8-87--6-6--6-8-7--4-5-6-7-6-5--4--7--5--4-6-7

D|----------------------------------------------------------------------

A|----------------------------------------------------------------------

E|----------------------------------------------------------------------

e|----------------------------------------------------------------------

B|----------------------------------------------------------------------

G|---13--13-13-13--11-10--13--13-13-13-13-11-10--11-11-11-11--10-11-13--

D|----------------------------------------------------------------------

A|----------------------------------------------------------------------

E|----------------------------------------------------------------------

e|----------------------------------------------------------------------

B|----------------------------------------------------------------------

G|---13-13-11-10---13--13-13-13--11-10--11--11-13-13-13-11--10-10-11-10-

D|----------------------------------------------------------------------

A|----------------------------------------------------------------------

E|----------------------------------------------------------------------

e|----------------------------------------------------------------------

B|----------------------------------------------------------------------

G|---9--9--8-6-7-4-5~---------------------------------------------------

D|----------------------------------------------------------------------

A|----------------------------------------------------------------------

E|----------------------------------------------------------------------

That's all, sugestions, corrections or anything else, mail-me at b182_aliens@hotmail.com

Get this song at:  amazon.com sheetmusicplus.com

Share your thoughts

0 Comments found