Blink 182

Blink 182 - Rock Show (live) guitar tab

Blink 182

The Rock Show Live

Take Off Your Pants And Jacket

Tabbed By Ben

OK this is the correct way to play The Rock Show you guys have been

doing it all wrong... I saw Tom play it live so her you go

Intro:

e---------------------------------------------------------------------

B---------------------------------------------------------------------

G---------------------------------------------------------------------

D--------2-0----------play four---------------------------------------

A--0-0-0-----4p0-2p0--times-------------------------------------------

E---------------------------------------------------------------------

e---------------------------------------------------------------------

B---------------------------------------------------------------------

G---------------------------------------------------------------------

D---------------------------------------------------------------------

A--77777777777777777777--play-----------------------------------------

E--55555555555555555555--palm muted-----------------------------------

Verse:

e---------------------------------------------------------------------

B---------------------------------------------------------------------

G-----------------------------7------------------9--------------------

D--7--------------------------7-xxxxxxxx---------9-xxxxxxxx-----------

A--7-xxxxxxxxxxxxxxxx---------5-xxxxxxxx---------7-xxxxxxxx-----------

E--5-xxxxxxxxxxxxxxxx-------------------------------------------------

Hanging ou behind... Acting stupid... Drunk with my best...

STRUM THE NOTE ON THE WORD THAN PALM MUTE

Chorus:

e---------------------------------------------------------------------

B---------------------------------------------------------------------

G-----------------------------------------7---------------------------

D-------7---7---7---7----4----------------7---------------------------

A-------7---7---7---7----4----------------5---------------------------

E-------5---5---5---5----2--------------------------------------------

Because I fell in love with the girl at the rock show...

She said what and I told her that I didn't know...

LISTEN TO THE CD HERE TO GET TIMINGS CORRECT

Solo:

e---------------------------------------------------------------------

B--2---2---2---3---2---2---2---3--------------------------------------

G----2---2---2---2---2---2---2---2--x2--------------------------------

D---------------------------------------------------------------------

A---------------------------------------------------------------------

E---------------------------------------------------------------------

That's it just put it all together which isn't hard and there ya go.

Get this song at:  amazon.com sheetmusicplus.com

Share your thoughts

0 Comments found