Blink 182

Blink 182 - Anthem Part Two guitar tab

Song: "ANTHEM PART TWO"

Band: blink-182

Album: "Take Off Your Pants and Jacket"

Performed by: Mark Hoppus (bass), Tom Delonge (guitar, vocals), and

Travis Barker (drums)

Comments: Well written song by blink-182. I'd say this is the best song from

the TOYPAJ album. Very well written intro as well. One more thing- Guitar 1

and Guitar 2- I know blink has only one guitarist, but there's two guitars in this song.

Guitar 1 doesn't indicate lead or backing guitar, just the first guitar I hear. By the way-

if this sounds wrong, you're playing it wrong. Comments etc.? toypaj_loserkid@hotmail.com.

______LEGEND______

|pm..=palm mute |

|h=hammer on |

|x=mute string |

------------------

Intro A (Gtr.1)

e|-3-----3------1-----1-----0------0------1----1-----------------------|

B|----1-----1------1-----1-----1------1------1----1--------------------|

G|---------------------------------------------------------------------|

D|---------------------------------------------------------------------|

A|---------------------------------------------------------------------|

E|---------------------------------------------------------------------|

Intro B (Gtr.1 continues Intro A underneath this)

e|---------------------------------------------------------------------|

B|---------------------------------------------------------------------|

G|---------------------------------------------------------------------|

D|-----0h3------2------0h3------2-------0h3-----2-----0------0---------|

A|-3-3------3-3----3-3------3-3-----3-3-----3-3----3-3--3-3------------|

E|---------------------------------------------------------------------|

pm... ... ... ... ... ... ... ...

Riff A (Gtr. 1)

e|----------------------------------------------------------------------|

B|----------------------------------------------------------------------|

G|-9-9-10-10--9--5-5-7-7--9-9-10-10-9-5-5-7-9-9-10-10-9-5-5-7-7-9-9-10-5|

D|-x-x-x--x---x--x-x-x-x--x-x-x--x--x-x-x-x-x-x-x--x--x-x-x-x-x-x-x-x--x|

A|-7-7-8--8---7--3-3-5-5--7-7-8--8--7-3-3-5-7-7-8--8--7-3-3-5-5-7-7-8--3|

E|----------------------------------------------------------------------|

Let the last chord ring out through the first two lines of the verse.

Verse A (Gtr.1 starts on "We need guidance...)

e|-------------------------------------------------------------------------|

B|-------------------------------------------------------------------------|

G|-9-9-9-9-----------------------------------------------------------------|

D|-x-x-x-x--5-5-5-5-5-5-5-5-5-5-5-5-5-5-5-5-2-2-2-2-2-2-2-2----------------|

A|-7-7-7-7--3-3-3-3-3-3-3-3-3-3-3-3-3-3-3-3-0-0-0-0-0-0-0-0-3-3-3-3-3-3-3-3|

E|----------------------------------------------------------1-1-1-1-1-1-1-1|

pm..............................................................

Interlude (Gtr.1 plays along with bass)

e|---------------------------------------------------------------------|

B|---------------------------------------------------------------------|

G|---------------------------------------------------------------------|

D|---------------------------------------------------------------------|

A|-----7-------------3----------3----------3---------------------------|

E|-5--------5----5--------5----------1---------------------------------|

Verse Part B (Gtr.1 starts on "Laws that rule...)

e|-------------------------------------------------------------------------|

B|-------------------------------------------------------------------------|

G|-9-9-9-9-----------------------------------------------------------------|

D|-x-x-x-x--5-5-5-5-5-5-5-5-5-5-5-5-5-5-5-5-2-2-2-2-2-2-2-2----------------|

A|-7-7-7-7--3-3-3-3-3-3-3-3-3-3-3-3-3-3-3-3-0-0-0-0-0-0-0-0-3-3-3-3-3-3-3-3|

E|----------------------------------------------------------1-1-1-1-1-1-1-1|

pm.............................................................

BTW at the beginning of this verse (corporate leaders...) let the XXX5X3 chord ring out.

Interlude (Gtr.1 plays along with bass)

e|---------------------------------------------------------------------|

B|---------------------------------------------------------------------|

G|---------------------------------------------------------------------|

D|---------------------------------------------------------------------|

A|-----7-------------3----------3----------3---------------------------|

E|-5--------5----5--------5----------1---------------------------------|

Chorus (We really need to....)-Gtr.1

e|---------------------------------------------------------------------|

B|---------------------------------------------------------------------|

G|---------------------------------------------------------------------|

D|-----------------------------5--5-5-5-5-5----------------------------|

A|-2--2-2-2-2-2--3--3-3-3-3-3--3--3-3-3-3-3--5--5-5-5-5-5--------------|

E|-0--0-0-0-0-0--1--1-1-1-1-1----------------3--3-3-3-3-3--------------|

Do this 2x and then:

We'll never give up.......................................if we're fucked...

e|----------------------------------------------------------------------|

B|----------------------------------------------------------------------|

G|----------------------------------------------------------------------|

D|-----------------------------5--5-5-5-5-5----------------------------5|

A|-2--2-2-2-2-2--3--3-3-3-3-3--3--3-3-3-3-3--5--5-5-5-5-5--2-2-2-2-2-2-x|

E|-0--0-0-0-0-0--1--1-1-1-1-1----------------3--3-3-3-3-3--0-0-0-0-0-0-3|

pm....................................................................

The XXX5X3 chord comes in when Tom says "you're (to blame)"

Riff A (Gtr.1)

e|----------------------------------------------------------------------|

B|----------------------------------------------------------------------|

G|-9-9-10-10--9--5-5-7-7--9-9-10-10-9-5-5-7-9-9-10-10-9-5-5-7-7-9-9-10-5|

D|-x-x-x--x---x--x-x-x-x--x-x-x--x--x-x-x-x-x-x-x--x--x-x-x-x-x-x-x-x--x|

A|-7-7-8--8---7--3-3-5-5--7-7-8--8--7-3-3-5-7-7-8--8--7-3-3-5-5-7-7-8--3|

E|----------------------------------------------------------------------|

Let the last chord ring out through the first two lines of the verse.

Verse Part C (Gtr.1 starts on "drown the youth...")

e|-------------------------------------------------------------------------|

B|-------------------------------------------------------------------------|

G|-9-9-9-9-----------------------------------------------------------------|

D|-x-x-x-x--5-5-5-5-5-5-5-5-5-5-5-5-5-5-5-5-2-2-2-2-2-2-2-2----------------|

A|-7-7-7-7--3-3-3-3-3-3-3-3-3-3-3-3-3-3-3-3-0-0-0-0-0-0-0-0-3-3-3-3-3-3-3-3|

E|----------------------------------------------------------1-1-1-1-1-1-1-1|

pm..............................................................

Interlude (Gtr.1 plays along with bass)

e|---------------------------------------------------------------------|

B|---------------------------------------------------------------------|

G|---------------------------------------------------------------------|

D|---------------------------------------------------------------------|

A|-----7-------------3----------3----------3---------------------------|

E|-5--------5----5--------5----------1---------------------------------|

Chorus (We really need to....)-Gtr.1

e|---------------------------------------------------------------------|

B|---------------------------------------------------------------------|

G|---------------------------------------------------------------------|

D|-----------------------------5--5-5-5-5-5----------------------------|

A|-2--2-2-2-2-2--3--3-3-3-3-3--3--3-3-3-3-3--5--5-5-5-5-5--------------|

E|-0--0-0-0-0-0--1--1-1-1-1-1----------------3--3-3-3-3-3--------------|

Do this 2x and then:

We'll never give up.......................................if we're fucked...

e|----------------------------------------------------------------------|

B|----------------------------------------------------------------------|

G|----------------------------------------------------------------------|

D|-----------------------------5--5-5-5-5-5----------------------------5|

A|-2--2-2-2-2-2--3--3-3-3-3-3--3--3-3-3-3-3--5--5-5-5-5-5--2-2-2-2-2-2-x|

E|-0--0-0-0-0-0--1--1-1-1-1-1----------------3--3-3-3-3-3--0-0-0-0-0-0-3|

pm....................................................................

The XXX5X3 chord comes in when Tom says "you're (to blame)"

Here's the part where Tom says, "Everything has fallen..." about 5 times.

No gtr. until:

Chorus (We really need to....)-Gtr.1

e|---------------------------------------------------------------------|

B|---------------------------------------------------------------------|

G|---------------------------------------------------------------------|

D|-----------------------------5--5-5-5-5-5----------------------------|

A|-2--2-2-2-2-2--3--3-3-3-3-3--3--3-3-3-3-3--5--5-5-5-5-5--------------|

E|-0--0-0-0-0-0--1--1-1-1-1-1----------------3--3-3-3-3-3--------------|

Do this 2x and then:

We'll never give up.......................................if we're fucked...

e|----------------------------------------------------------------------|

B|----------------------------------------------------------------------|

G|----------------------------------------------------------------------|

D|-----------------------------5--5-5-5-5-5----------------------------5|

A|-2--2-2-2-2-2--3--3-3-3-3-3--3--3-3-3-3-3--5--5-5-5-5-5--2-2-2-2-2-2-x|

E|-0--0-0-0-0-0--1--1-1-1-1-1----------------3--3-3-3-3-3--0-0-0-0-0-0-3|

pm....................................................................

Outro (Gtr.1)

e|---------------------------------------------------------------------|

B|---------------------------------------------------------------------|

G|---------------------------------------------------------------------|

D|-----0h3------2------0h3------2-------0h3-----2-----0------0---------|

A|-3-3------3-3----3-3------3-3-----3-3-----3-3----3-3--3-3------------|

E|---------------------------------------------------------------------|

pm... ... ... ... ... ... ... ...

Outro (Gtr.2)

e|-3-----3------1-----1-----0------0------1----1-----------------------|

B|----1-----1------1-----1-----1------1------1----1--------------------|

G|---------------------------------------------------------------------|

D|---------------------------------------------------------------------|

A|---------------------------------------------------------------------|

E|---------------------------------------------------------------------|

End on (Gtrs. 1&2)

e|----|

B|----|

G|-5--|

D|-x--|

A|-3--|

E|----|

Get this song at:  amazon.com sheetmusicplus.com

Share your thoughts

0 Comments found