Blink 182

Blink 182 - Carousel - Blink 182 bass tab

This songs great and very fun to play. I hope you like it!

-Start

G-14-14-14-12-12-12-11-11-| |14-14-14-12-12-12-11-11-| |-12-12-12-11-11-11-----|

D-------------------------| |------------------------| |-------------------12--|

A-------------------------| |------------------------| |-----------------------|

E-------------------------| |------------------------| |-----------------------|

G-------------------------12-12-12-11-11-11-9-9-|

D-11-11-11-12-12-12-14-14-----------------------|

A-----------------------------------------------|

E-----------------------------------------------|

( X2 )

G-12-12-12-11-11-9-9-|

D--------------------|

A--------------------|

E--------------------|

G-12-12-12-12-11-11-11----|

D----------------------12-|

A-------------------------|

E-------------------------|

G-11-11-11-12-12-12-14-14-|

D-------------------------|

A-------------------------|

E-------------------------|

G-14-14-14-12-12-12-11-11-| |14-14-14-12-12-12-11-11-| |-12-12-12-11-11-11-----|

D-------------------------| |------------------------| |-------------------12--|

A-------------------------| |------------------------| |-----------------------|

E-------------------------| |------------------------| |-----------------------|

G------------------------|

D-R-12-12-12-12-12-12-12-|

A------------------------|

E------------------------|

G-12-12-12-11-11-11-9-9---| |-12-12-12-11-11-11-9-9--| |-12-12-12-11-11-11---|

D-------------------------| |------------------------| |------------------12-|

A-------------------------| |------------------------| |---------------------|

E-------------------------| |------------------------| |---------------------|

G-------------------------|

D-11-11-11-12-12-12-14-14-|

A-------------------------|

E-------------------------|

G---11-11-12-14-12-11-----| |---6-6-7-9-7-6---|

D-0-------------------(0)-| |-7-------------7-|

A-------------------------| |-----------------|

E-------------------------| |-----------------|

G---9-9-11-12-12-11-9-----7-----7---7-|

D-9-------------------5-5---5-5---5---|

A-------------------------------------|

E-------------------------------------|

G---11-11-12-14-12-11-----| |---6-6-7-9-7-6---|

D-0-------------------(0)-| |-7-------------7-|

A-------------------------| |-----------------|

E-------------------------| |-----------------|

G---9-9-11-12-12-11-9-|

D-9-------------------|

A---------------------|

E---------------------|

G-(7)-(7)-7-7-7-7-7-7-7-|

D--5---5--5-5-5-5-5-5-5-|

A-----------------------|

E-----------------------|

/===\ /===\/===\ /==\

G-11-11-11-11-11-11-9-9-9-9-9-9-|

D--0--0--0--0--0--0-7-7-7-7-7-7-|

A-------------------------------|

E-------------------------------|

/===\ /===\/===\ /==\

G-11-11-11-11-11-11-7-7-7-7-7-7-|

D--9--9--9--9--9--9-5-5-5-5-5-5-|

A-------------------------------|

E-------------------------------|

/===\ /===\/===\ /==\

G-11-11-11-11-11-11-9-9-9-9-9-9-|

D--0--0--0--0--0--0-7-7-7-7-7-7-|

A-------------------------------|

E-------------------------------|

/===\ /===\/===\ /==\

G-11-11-11-11-11-11-7-7-7-7-7-7-|

D--9--9--9--9--9--9-5-5-5-5-5-5-|

A-------------------------------|

E-------------------------------|

/===\ /===\/===\ /==\

G-11-11-11-11-11-11-9-9-9-9-9-9-|

D--0--0--0--0--0--0-7-7-7-7-7-7-|

A-------------------------------|

E-------------------------------|

/===\ /===\/===\ /==\

G-11-11-11-11-11-11-7-7-7-7-7-7-|

D--9--9--9--9--9--9-5-5-5-5-5-5-|

A-------------------------------|

E-------------------------------|

/===\ /===\/===\ /==\

G-11-11-11-11-11-11-9-9-9-9-9-9-|

D--0--0--0--0--0--0-7-7-7-7-7-7-|

A-------------------------------|

E-------------------------------|

/===\ /===\/===\ /==\

G-11-11-11-11-11-11-7-7-7-7-7-7-|

D--9--9--9--9--9--9-5-5-5-5-5-5-|

A-------------------------------|

E-------------------------------|

(X4)

G----T----|

D----S----|

A----E----|

E----R----1

G-------------------------------| |-------------------------------|

D-------------------------------| |-------------------------------|

A-5--5-5-5-5-5-5----------------| |-------------------------------|

E----------------5--5-5-5-5-5-5-| |-7--7-7-7-7-7-7-3--3-3-3-3-3-3-|

G-------------------------------| |-------------------------------|

D-------------------------------| |-------------------------------|

A-5--5-5-5-5-5-5----------------| |-------------------------------|

E----------------5--5-5-5-5-5-5-| |-7--7-7-7-7-7-7-3--3-3-3-3-3-3-|

G-------------------------------| |-------------------------------|

D-------------------------------| |-------------------------------|

A-------------------------------| |-5--5-5-5-5-5-5----------------|

E-7--7-7-7-7-7-7-3--3-3-3-3-3-3-| |----------------5--5-5-5-5-5-5-|

G-------------------------------| |-------------------------------|

D-------------------------------| |-------------------------------|

A-------------------------------| |-5--5-5-5-5-5-5----------------|

E-7--7-7-7-7-7-7-3--3-3-3-3-3-3-| |----------------5--5-5-5-5-5-5-|

G------------------------------------|

D------------------------------------|

A----------------10--10-10-12--12-12-|

E-7--7-7-7-7-7-7---------------------|

( X 2 )

G-------------------------------| |------------------------------|

D-------------------------------| |------------------------------|

A-5.-5-5-5--5-5.----------------| |------------------------------|

E----------------5.-5-5-5--5-5.-| |-7.-7-7-7--7-7.-3.-3-3--3-3.--|

G-------------------------------|

D-------------------------------|

A-------------------------------|

E-7.-7-7-7--7-7.-3.-3-3-3--3-3.-|

( X1 )

G-------------------------------| |-------------------------------|

D-------------------------------| |-------------------------------|

A-5--5-5-5-5-5-5-7--7-7-7-7-7-7-| |-------------------------------|

E-------------------------------| |-5--5-5-5-5-5-5-3--3-3-3-3-3-3-|

G--------------------|

D--------------------|

A--------------------|

E-5---R---3--3--3--3-|

G-------------------------------|

D-------------------------------|

A-5--5-5-5-5-5-5----------------|

E----------------5--5-5-5-5-5-5-|

G-------------------------------| |-------------------------------|

D-------------------------------| |-------------------------------|

A-------------------------------| |-5--5-5-5-5-5-5----------------|

E-7--7-7-7-7-7-7-3--3-3-3-3-3-3-| |----------------5--5-5-5-5-5-5-|

G------------------------------------|

D------------------------------------|

A----------------10--10-10-12--12-12-|

E-7--7-7-7-7-7-7---------------------|

( X 1 )

G-------------------------------| |------------------------------|

D-------------------------------| |------------------------------|

A-5.-5-5-5--5-5.----------------| |------------------------------|

E----------------5.-5-5-5--5-5.-| |-7.-7-7-7--7-7.-3.-3-3--3-3.--|

( X 1 )

G-11--11--11-11-11-11-9--9--9-9-9-9-| |-11--11--11-11-11-11-7--7--7-7-7-7-|

D--0---0---0--0--0--0-7--7--7-7-7-7-| |--9---9---9--9--9--9-5--5--5-5-5-5-|

A-----------------------------------| |-----------------------------------|

E-----------------------------------| |-----------------------------------|

\/( X1 )\/

G------------------------------------| |-------------------|

D------------------------------------| |-------------------|

A-5----------------------------------| |-------------------|

E---------5--------7--------3--------| |-7--------3--------|

( X1 )

G-------------------------------| |-------------------------------|

D-------------------------------| |-------------------------------|

A-5--5-5-5-5-5-5-7--7-7-7-7-7-7-| |-------------------------------|

E-------------------------------| |-5--5-5-5-5-5-5-3--3-3-3-3-3-3-|

( X3 )

G-------------------------------| |-------------------------------|

D-------------------------------| |-------------------------------|

A-5--5-5-5-5-5-5-7--7-7-7-7-7-7-| |-------------------------------|

E-------------------------------| |-5--5-5-5-5-5-5-3--3-3-3-3-3-3-|

G--------------------| |---------|

D--------------------| |---------|

A--------------------| |-5-------|Let ring for 3 measures.

-END

Get this song at:  amazon.com sheetmusicplus.com

Share your thoughts

0 Comments found