Blink 182

Blink 182 - Carousel (full Length) bass tab

Intro: (0:00-0:26)

____________________________________________________

G-14-14-14--12-12-12--11-11- |

D-0--0--0---0--0--0---0--0-- X2 |

A--------------------------- |

E--------------------------- |

|

G--------------------------- |

D-11-11-11--12-12-12--14-14- X2 |

A-12-12-12--12-12-12--12-12- |

E--------------------------- |

|-------------> X2

G-12-12-12--11-11-11--9-9- |

D-9--9--9---9--9--9---9-9- X2 |

A------------------------- |

E------------------------- |

|

G------------------------- |

D-12-12-12-12-12-12-12-12- X2 |

A-10-10-10-10-10-10-10-10- |

E------------------------- |

____________________________________________________|

Bass Solo:(0:26-0:40)

G---11-11-12-14-12-11-------------------------9-9-11-12-11-9---------------------------

D-0-------------------0---11-11-12-14-11----9------------------------12--------12---12-

A-----------------------12---------------12------------------10-10-10--10-10-10---10---

E--------------------------------------------------------------------------------------

G---11-11-12-14-12-11-------------------------9-9-11-12-11-9--------------------------

D-0-------------------0---11-11-12-14-11----9------------------12-12-12-12-12-12-12-12

A-----------------------12---------------12--------------------10-10-10-10-10-10-10-10

E-------------------------------------------------------------------------------------

Part Before Verse: (0:40-0:54)

G-11-11-11-11-11-11--9--9--9--9--9--9--11-11-11-11-11-11---------------------

D-0--0--0--0--0--0---7--7--7--7--7--7---9--9--9--9--9--9---12-12-12-12-12-12-

X4

A----------------------------------------------------------10-10-10-10-10-10-

E----------------------------------------------------------------------------

*Note: This section has it's own rhythm, so listen to the song

for the timing.

Break---Guitar and drums only.

Then:(1:05-1:14)

G-11-11-11-11-11-11--9--9--9--9--9--9--11-11-11-11-11-11---------------------

D-0--0--0--0--0--0---7--7--7--7--7--7---9--9--9--9--9--9---12-12-12-12-12-12-

X2

A----------------------------------------------------------10-10-10-10-10-10-

E----------------------------------------------------------------------------

Verse:(1:14-1:23)

G-----------------------------------|

D-00000000--------------------------| X2

A---------0000000022222222----------|

E-------------------------333333333-|

Singing starts:(1:23-1:42)

G-11-11-11-11-11-11--9--9--9--9--9--9--11-11-11-11-11-11---------------------

D-0--0--0--0--0--0---7--7--7--7--7--7---9--9--9--9--9--9---12-12-12-12-12-12-

X4

A----------------------------------------------------------10-10-10-10-10-10-

E----------------------------------------------------------------------------

Chourus (Just you wait and see,):(1:42-2:00)

G--------------------------------0-0-0-0-0-0-0-0-2-2-2-2-2-2-2-2-

D-0-0-0-0-0-0-0-0-2-2-2-2-2-2-2-2-------------------------------- X4

A----------------------------------------------------------------

E----------------------------------------------------------------

Verse:(2:00-2:29)

G-----------------------------------|

D-00000000--------------------------| X6

A---------0000000022222222----------|

E-------------------------333333333-|

Guitar solo:(2:29-2:39)

G---------------------------------------

D-0------------0------------------------

A----0--2----------0---22222222---------

E----------3-------------------33333333-

Then start to play this rift to the verse:(2:39-2:47)

G-----------------------------------|

D-00000000--------------------------| X2

A---------0000000022222222----------|

E-------------------------333333333-|

Then play the rift to the chourus (Just you wait and see,):(2:47-3:11)

G--------------------------------0-0-0-0-0-0-0-0-2-2-2-2-2-2-2-2-

D-0-0-0-0-0-0-0-0-2-2-2-2-2-2-2-2-------------------------------- X4

A----------------------------------------------------------------

E----------------------------------------------------------------

~Zark~

Get this song at:  amazon.com sheetmusicplus.com

Share your thoughts

0 Comments found