Blink 182

Blink 182 - Take Off Your Pants And Jacket (album) bass tab

K Yalll have fun now hu hu

01 Anthem Part Two

Intro 1

G----------------------------------------

D----------------------------------------

A-3333--------------3333------------3333-

E----------------------------------------

G---------------------------------------------------------------

D---------------------------------------------------------------

A-55555555-00000000-88888888-33333333-55555555-00000000-88888888

E---------------------------------------------------------------

Intro 2

G------------------------------------------------------------------------

D------------------------------------------------------------------------

A-33333333-55555555-00000000-88888888-33333333-55555555-00000000-88888888

E------------------------------------------------------------------------

G------------------------------------------------------------------------

D------------------------------------------------------------------------

A-33333333-55555555-00000000-88888888-33333333-55555555-00000000-333-333-

E------------------------------------------------------------------------

Pre-Verse

G---------------------------------------

D---------------------------------------

A-3-3-3-333-0-0-------3-3-3-333-0-0-----

E---------------1-111---------------1---

Verse (Everything has fallen..)

G-----------------------------------

D-----------------------------------

A-3333333333333333-00000000---------

E---------------------------11111111

G-----------------------------------

D-----------------------------------

A-3333333333333333-00000000---------

E---------------------------11111111

Verse Bridge

G-----------------------------

D----14-------12------10------

A-12----12-10----10-8---------

E-----------------------------

Pre-Chorus

G-----------------------------

D----14-------12------10------

A-12----12-10----10-8---------

E-----------------------------

Chorus (need to see this through)

G------------------------------------

D------------------------------------

A-------------------33333333---------

E-00000000-11111111----------33333333

G------------------------------------

D------------------------------------

A-------------------33333333---------

E-00000000-11111111----------33333333

G------------------------------------

D------------------------------------

A-------------------33333333---------

E-55555555-11111111----------33333333

G--------------

D--------------

A--------------

E-55555555-1---

Solo

G-----------------------------------

D-----------------------------------

A-3-3333333-333333-0-000000---------

E---------------------------1-111111

G-----------------------------------

D-----------------------------------

A-3-3333333-333333-0-000000---------

E---------------------------1-111111

G----------------------------------- -everything has fallen..

D-----------------------------------

A-3-3333333-333333-0-000000---------

E---------------------------1-111111

G-----------------------------------

D-----------------------------------

A-3-3333333-333333-0-000000-8-888888

E-----------------------------------

G-171717171717171717171717171717171717171717171717

D-171717171717171717171717171717171717171717171717

A-------------------------------------------------

E-------------------------------------------------

Order:

Intro 1 x1

Intro 2 x1

Pre-Verse x1

Verse x2

Verse Bridge x1

Verse x2

Pre-Chorus x1

Chorus x1

Pre-Verse x1

Verse x2

Verse Bridge x1

Verse x2

Pre-Chorus x1

Chorus x1

Solo x1

Chorus x1

Pre-Verse x1

Intro 2 x1

________________________________________________________

02 Online Songs

Intro

G-------------------------------------

D-------------------------------------

A-00000000-22222222-55555555-777777777 -Josie youre my

E-------------------------------------

G-------------------------------------

D-------------------------------------

A-00000000-22222222-55555555-777777777

E-------------------------------------

G-------------------------------------

D-------------------------------------

A-00000000-22222222-55555555-777777777

E-------------------------------------

G-------------------------------------

D-------------------------------------

A-00000000-22222222-55555555-7--------

E-------------------------------------

Pre-Verse

G-------------------------------------

D-------------------------------------

A-00000000-22222222-55555555-777777777

E-------------------------------------

G-------------------------------

D-------------------------------

A-00000000-22222222-55555555-777

E-------------------------------

Verse (why am i still hanging around)

G-------------------------------------

D-------------------------------------

A-00000000-55555555-9999-7777-00000000

E-------------------------------------

G-------------------------------------

D-------------------------------------

A-00000000-55555555-9999-7777-00000000

E-------------------------------------

Chorus 1 (please dont remind me)

G------------------------------------

D------------------------------------

A-5-5-5555-0-0-0000-7-7-7777-5-5-5555

E------------------------------------

G------------------------------------

D------------------------------------

A-5-5-5555-0-0-0000-7-7-7777-5-5-5555

E------------------------------------

Chorus 2 (And i am not fine)

G------------------------------------

D------------------------------------

A-5-5-5555-0-0-0000---7-7777-5-5-5555

E------------------------------------

G------------------------------------

D------------------------------------

A-5-5-5555-0-0-0000---7-7777-5-5-5555

E------------------------------------

Bridge (nana na nana na)

G----------------------------------

D----------------------------------

A---------5-5-----00000000-77777777

E-2-2-----------------------------

G----------------------------------

D----------------------------------

A---------5-5-----00000000-77777777

E-2-2------------------------------

G------------------------------------

D------------------------------------

A----------55555555-00000000-77777777

E-22222222---------------------------

G------------------------------------

D------------------------------------

A----------55555555-00000000-77777777

E-22222222---------------------------

Outro (na na na na)

G-------------

D-------------

A---------5---

E-2-2-222-----

Order:

Intro x1

Pre-Verse x1

Verse x1

Pre-Verse x1

Verse x1

Chorus 1 x1

Verse x1

Chorus 1 x1

Chorus 2 x1

Bridge x1

Chorus 1 x1

Chorus 2 x1

Outro x1

______________________________________________________

03 First Date

Intro

G---------------------------------

D---------------------------------

A-33-333-55-555-88-888-1010-101010

E---------------------------------

G---------------------------------

D---------------------------------

A-33-333-55-555-88-888-1010-101010

E---------------------------------

Verse (in my car...)

G-----------------------------------

D-----------------------------------

A-3333333333333333------------------

E------------------33333333-11111111

G-----------------------------------

D-----------------------------------

A-3333333333333333------------------

E------------------33333333-11111111

G-----------------------------------

D-----------------------------------

A-3333333333333333------------------

E------------------33333333-11111111

G-----------------------------------

D-----------------------------------

A-3333333333333333------------------

E------------------33333333-11111111

Chorus (lets go dont wait)

G----------------------------

D----------------------------

A-333--222--0-0-0-0-8-8-10-10

E----------------------------

G----------------------------

D----------------------------

A-333--222--0-0-0-0-8-8-10-10

E----------------------------

Post Chorus (forever, and ever)

G----------------------------------

D----------------------------------

A-3-3-3-3-2-2-2-2-0-0-0-0-8-8-10-10

E----------------------------------

G----------------------------------

D----------------------------------

A-3-3-3-3-2-2-2-2-0-0-0-0-8-8-10-10

E----------------------------------

NO BASS DURING SOLO...Mark only plays during the solo live because there's two guitars

during the second half and mark plays the rhythm... but thats LIVE so if your band

wants to play it liveand youre short a guitarist, heres the bridge at 01:52 at first

there's only a palm muted guitar, but the bass starts live when tom plays the not-palm

muted part

G--------------------------------

D--------------------------------

A-33333333-----------------------

E----------000000-1111111-3333333

G--------------------------------

D--------------------------------

A-33333333-----------------------

E----------000000-1111111-3333333

G--------------------------------

D--------------------------------

A-33333333-----------------------

E----------000000-1111111-3333333

G--------------------------------

D--------------------------------

A-33333333-----------------------

E----------000000-1111111-3333333

End on:

G--

D--

A-3

E--

Although tom plays the intro at the end, mark keeps on playing the post-chorus

Order:

Intro x1

Verse x1

Chorus x1

Post Chorus x1

Intro x1

Verse x1

Chorus x1

Post Chorus x1

Pause for Guitar solo

Chorus x1

Post Chorus x2

___________________________________________________

04 Happy Holidays, You Bastard

Verse (eve and ive only wrapped)

G-------------------------------

D-------------------------------

A-2-22222---------2-2222--------

E---------2-22222--------2-22222

Pre-Chorus (hate, hate, hate your guts

G----------------

D----------------

A----------------

E-4-44444-0-00000

Chorus (ill never talk to you again)

G------------------------------------------------------------------------------

D------------------------------------------------------------------------------

A-2222---------------2222---------------2222---------------2222----------------

E------2222-0---2-22------2222-00000000------2222-00000000------2222-0000-2222-

Outro:

G----------

D----------

A-2-------2

E----------

Order:

Verse x1

Pre-Chorus x1

Chorus x1

Verse x1

Pre-Chorus x1

Chorus x1

Outro x1

______________________________________________________

05 Story of a Lonely Guy

Intro

G:----9-9-9------9-9-9------6-6-6------6-4-

D:-77--7-7-7--99--9-9-9--44--4-4-4----7----

A:-----------------------------------5-----

E:-----------------------------------------

G:----9-9-9------9-9-9------6-6-6----------

D:-77--7-7-7--99--9-9-9--44--4-4-4----5-7-5

A:-----------------------------------5-----

E:-----------------------------------------

Verse (Push it out, fake a smile)

G-------------------------------------

D-------------------------------------

A--------------------44444444-55555555

E-55555555-777777777------------------

G-------------------------------------

D-------------------------------------

A--------------------44444444-55555555

E-55555555-777777777------------------

G-------------------------------------

D-------------------------------------

A--------------------44444444-55555555

E-55555555-777777777------------------

G-------------------------------------

D-------------------------------------

A--------------------44444444-55555555

E-55555555-777777777------------------

Pre-Chorus (Da Da Da)

G------------------------------------

D------------------------------------

A-44444444-55555555----------77777777

E-------------------55555555---------

Chorus (she makes me feel like)

G------------------------------------

D------------------------------------

A----------77777777----------55555555

E-55555555----------22222222---------

G------------------------------------

D------------------------------------

A----------77777777----------55555555

E-55555555----------22222222---------

G------------------------------------

D------------------------------------

A----------77777777----------55555555

E-55555555----------22222222---------

G------------------------------------

D------------------------------------

A----------77777777----------55555555

E-55555555----------22222222---------

Bridge

G-----------------------------------

D-----------------------------------

A-44444444-55555555-----------------

E-------------------0000000000000000

G-----------------------------------

D-----------------------------------

A-44444444-55555555-----------------

E-------------------0000000000000000

G:----------------------------------------------------------------

D:----------------------------------------------------------------

A:-44444444-55555555-7777777777777777-4444------44444444-55555555-

E:-----------------------------------------5555-------------------

Outro

G---------------------------------------------------------

D---------------------------------------------------------

A----------77777777----------5555555555555555-4-----------

E-55555555----------22222222--------------------5-5-------

Order:

Intro x1

Verse x1

Pre-Chorus x1

Chorus x1

Intro x1

Verse x1

Pre-Chorus x1

Chorus x1

Bridge x1

Chorus x1

Outro x1

______________________________________________________

06 The Rock Show

Intro

G------------------------------------

D------------------------------------

A-0000000000000000-555555555-77777777

E------------------------------------

G------------------------------------

D------------------------------------

A-0000000000000000-555555555-77777777

E------------------------------------

Pre-Verse

G------------------

D------------------

A-00000000000000000

E------------------

Verse (hangin out behind)

G------------------------------------

D------------------------------------

A-0000000000000000-555555555-77777777

E------------------------------------

G------------------------------------

D------------------------------------

A-0000000000000000-555555555-77777777

E------------------------------------

Chorus (fell in love)

G---------------

D---------------

A------------5-5

E-5-5-5-2-2-----

G---------------

D---------------

A------------5-5

E-5-5-5-2-2-----

G---------------

D---------------

A------------5-5

E-5-5-5-2-2-----

Post-Chorus (everything's better when)

G------------------------------------------------

D------------------------------------------------

A-7777777777777777-5555555555555555-77777777-5-4-

E------------------------------------------------

Bridge (black and white picture of her)

G----------------------------------------------------------------

D----------------------------------------------------------------

A-9-9-9-9-9-9-9-7-5-5-5-5-7-5-4-2-0-0-0-0-0-0-2-2-7-7-7-7-7-7-5-5

E----------------------------------------------------------------

G----------------------------------------------------------------

D----------------------------------------------------------------

A-9-9-9-9-9-9-9-7-5-5-5-5-7-5-4-2-0-0-0-0-0-0-2-2-7-7-7-7-7-7-5-5

E----------------------------------------------------------------

Order:

Intro x1

Verse x1

Intro x1

Verse x1

Chorus x1

Post-Chorus x1

Intro x1

Verse x1

Chorus x1

Post-Chorus x1

Bridge x1

Chorus x1

Post-Chorus x1

Intro x6 and then fade out

____________________________________________

07 Stay Together For the Kids

Note: the bass doesnt play during intro 1, verse 1, or intro 2

Chorus (so here's your holiday)

G------------------------------------------------------------------------

D------------------------------------------------------------------------

A------------------------------------------------------------------------

E-3333333333333333-22222222222222-0h2-3333333333333333-22222222222222-0h2

G------------------------------------------------------------------------

D------------------------------------------------------------------------

A------------------------------------------------------------------------

E-3333333333333333-22222222222222-0h2-3333333333333333-22222222222222-0h2

Verse 2 (their anger hurts my ears)

G-----7~-9~-----7~-9~-----5~-7~-----7~-9~--

D--0~--------7~--------5~--------7~--------

A------------------------------------------

E------------------------------------------

G-----7~-9~-----7~-9~-----5~-7~-----7~-9~--

D--0~--------7~--------5~--------7~--------

A------------------------------------------

E------------------------------------------

Bridge

G-----77-99-7-----77-99-7-----55-77-5-----77-99-7---

D--00----------77----------55----------77-----------

A---------------------------------------------------

E---------------------------------------------------

G-----77-99-7-----77-99-7-----55-77-5-----77-99-7---

D--00----------77----------55----------77-----------

A---------------------------------------------------

E---------------------------------------------------

G-----77-99-7-----77-99-7-----55-77-5-----77-99-7---

D--00----------77----------55----------77-----------

A---------------------------------------------------

E---------------------------------------------------

G-----77-99-7-----77-99-7-----55-77-5-----77-99-7---

D--00----------77----------55----------77-----------

A---------------------------------------------------

E---------------------------------------------------

G------------------------------------------------------------------------

D------------------------------------------------------------------------

A------------------------------------------------------------------------

E-3333333333333333-22222222222222-0h2-3333333333333333-22222222222222-0h2

G------------------------------------------------------------------------

D------------------------------------------------------------------------

A------------------------------------------------------------------------

E-3333333333333333-22222222222222-0h2-3333333333333333-22222222222222-0h2

Outro

G------------------------------------------------------------------------

D------------------------------------------------------------------------

A------------------------------------------------------------------------

E-3333333333333333-22222222222222-0h2-3333333333333333-22222222222222-0h2

G------------------------------------------------------------------------

D------------------------------------------------------------------------

A------------------------------------------------------------------------

E-3333333333333333-22222222222222-0h2-3333333333333333-22222222222222-0h2

G------------------------------------------------------------------------

D------------------------------------------------------------------------

A------------------------------------------------------------------------

E-3333333333333333-22222222222222-0h2-3333333333333333-22222222222222-0h2

G------------------------------------------------------------------------

D------------------------------------------------------------------------

A------------------------------------------------------------------------

E-3333333333333333-22222222222222-0h2-3333333333333333-22222222222222-0h2

On ninth time, start to fade out

Order:

Pause for Guitar intro

Pause for guitar Verse 1

Chorus x1

Pause for guitar intro

Verse 2 x1

Chorus x1

Bridge x1

Chorus x1

Outro x1

___________________________________________________

08 Roller Coaster

Intro

G------------------

D------------------

A----------55555555

E-55555555---------

IMPORTNT!!!:On first chorus, at beginning, the bass ony plays the chorus once

during the "roller coaster favorite...." part

Chorus (breathing deeply)

G------------------------------------

D------------------------------------

A------------------55555555------5555

E-5555555555555555----------7777-----

Verse (leave me standing here)

G-----------------------

D-----------------------

A-------5555------5555--

E--5555------7777-------

G-----------------------

D-----------------------

A-------5555------5555--

E--5555------7777-------

G-----------------------

D-----------------------

A-------5555------5555--

E--5555------7777-------

G-----------------------

D-----------------------

A-------5555------5555--

E--5555------7777-------

Bridge (very fast, youll know when the bass comes in)

G-------------------------------------------------------------------

D-------------------------------------------------------------------

A---------------------------------------------------5555555555555555

E-55555555555555555555555555555555-0000000000000000-----------------

G-------------------------------------------------------------------

D-------------------------------------------------------------------

A---------------------------------------------------5555555555555555

E-55555555555555555555555555555555-0000000000000000-----------------

Outro (Good Night)

G----------------------------------

D----------------------------------

A---------------------------------5

E-5-5-5-5-5-5-5-5-5-5-5-5-5-5-5-5--

Order:

Intro x1

Pause for guitar to play first half of chorus

Chorus x1

Intro x1

Verse x1

Intro x1

Verse x1

Chorus x2

Pause for electric stuff and drums

Bridge

Chorus x2

Outro x1

____________________________________________________

09 Reckless Abandon

Pre-Verse

G---------------------------------

D---------------------------------

A-2-2-------------2-2-------------

E-----0-0-4-4-2-2-----0-0-4-4-2---

G---------------------------------

D---------------------------------

A-2-2-------------2-2-------------

E-----0-0-4-4-2-2-----0-0-4-4-2---

Verse (I learned a lot today)

G----------------------------------

D----------------------------------

A-2222222222222222-----------------

E------------------2222222222222222

G----------------------------------

D----------------------------------

A-2222222222222222-----------------

E------------------2222222222222222

Chorus (On and on)

G-----------------

D-----------------

A-2---2---2---2-4-

E---2---2---2-----

G-----------------

D-2---2---2---2-4-

A---2---2---2-----

E-----------------

Post-Chorus (and break the truth)

G:----------------------------------

D:----------------------------------

A:----------------------------------

E:44444444-22222222-0000000000000000

G:----------------------------------

D:----------------------------------

A:----------------------------------

E:44444444-22222222-0---------------

End On:

G---------

D---------

A-2-------

E---------

Order:

Guitar does intro (chorus)

Pre-Verse x1

Verse x1

Chorus x1

Pre-Verse x1

Verse x1

Chorus x1

Pause for Bridge

Chorus x1

End

_______________________________________________________

10 Every Time I Look For You

Intro (never found out why you left him)

G---------------------------------

D---------------------------------

A-2-------4---7---2-------4---7---

E---------------------------------

Verse Part 2 (young and stupid)

G---------------------------------

D---------------------------------

A-2-------4---7---2-------4---7---

E---------------------------------

Pre-Verse

G----------------------------------------

D----------------------------------------

A-2222-9999-7777-4444-2222-9999-7777-4444

E----------------------------------------

Verse Part 1 (very fast) (one more point of contention)

G-----------------------------------

D-----------------------------------

A-2222222222222222-44444444-77777777

E-----------------------------------

G-----------------------------------

D-----------------------------------

A-2222222222222222-44444444-77777777

E-----------------------------------

Chorus (every time i look for you)

G-------------------

D-------------------

A---------------2222

E-44444444-0000-----

G-------------------

D-------------------

A---------------2222

E-44444444-0000-----

G-------------------

D-------------------

A---------------2222

E-44444444-0000-----

G-------------------

D-------------------

A---------------2222

E-44444444-0000-----

Post-Chorus (more will the last one out please shut the door)

G----------------------------------

D----------------------------------

A-777777777777777777777777777777777

E----------------------------------

Bridge

G-------------------------------------

D----------44444444-22222222222222h4p2

A-22222222----------------------------

E-------------------------------------

G-------------------------------------

D----------44444444-22222222222222h4p2

A-22222222----------------------------

E-------------------------------------

I never did do anything that she asked

G-------------------------------------

D----------44444444-22222222222222h4p2

A-22222222----------------------------

E-------------------------------------

G-------------------------------------

D----------44444444-22222222222222h4p2

A-22222222----------------------------

E-------------------------------------

Outro (every time i look for you the sun goes down)

G---------------

D---------------

A---------------

E-44444444-0-0-0

Order

Intro x1

Verse Part 2 x1

Pre-Verse x1

Verse Part 1 x1

Verse Part 2 x1

Chorus x1

Intro x1

Verse Part 1 x1

Verse Part 2 x1

Chorus x1

Pause for Guitar

Bridge x1

Chorus x1 1/2

Outro x1

_______________________________________________

11 Gimme One Good Reason

Verse (mom and dad they..)

G------------------------------------------------

D------------------------------------------------

A-------22222-------22222-44444-22222-44444-22222

E-00000-------00000------------------------------

Post-Verse

G---------------------------

D---------------------------

A--------222222-------222222

E-00000---------0000--------

Chorus (Give me one good reason)

G-----------------------------------------------------------------------

D-----------------------------------------------------------------------

A-------------------2222222222222222-------------------22222222-00000000

E-00000000-44444444------------------00000000-44444444------------------

G-----------------------------------------------------------------------

D-----------------------------------------------------------------------

A-------------------2222222222222222-------------------22222222-00000000

E-00000000-44444444------------------00000000-44444444------------------

2nd Intro (01:12)

G------------------------------------------------------------------------

D------------------------------------------------------------------------

A----------22222222----------22222222-44444444-00000000-44444444-22222222

E-00000000----------00000000---------------------------------------------

Bridge

G--------------------------------------------------------------------

D--------------------------------------------------------------------

A-4444444444444444-0000000000000000-4444444444444444-2222222222222222

E--------------------------------------------------------------------

G-----------------------------------------------------------------------

D-----------------------------------------------------------------------

A-4444444444444444-0000000000000000-4444444444444444-22222222-00000000--

E----------------------------------------------------------------------0

End on:

G--

D--

A--

E-0

Order:

Pause for guitar to play 1st intro

Verse x1

Post-Verse x1

Verse x1

Post-Verse x1

Chorus x1

2nd Intro x1

Verse x1

Post-Verse x1

Chorus x1

Bridge x1

Pause for drum solo

Chorus x1

End on x1

____________________________________________________________-

12 Shut Up

Intro

G---------------------------------

D---------------------------------

A-0---0---4---5---0---0---4---5---

E---------------------------------

G---------------------------------

D---------------------------------

A-0---0---4---5---0---0---4---5---

E---------------------------------

Verse (shut the #@*$ up, she said)

G---------------------------------

D---------------------------------

A-0---0---4---5---0---0---4---5---

E---------------------------------

G---------------------------------

D---------------------------------

A-0---0---4---5---0---0---4---5---

E---------------------------------

Chorus (Ill never ask..)

G----------------------------------------

D----------------------------------------

A-555555555-000000000-555555555-000000000

E----------------------------------------

(I'm not coming home)

G------------------------------------------------------------------

D------------------------------------------------------------------

A-2-2-2-2-2-2-2-2-5-5-5-5-5-5-5-5--2-2-2-2-2-2-2-2--5-5-5-5-5-5-5-5

E------------------------------------------------------------------

Bridge (away)

G--------------------------------

D-----2-------2-------2-------2--

A-2-2---2-2-2---2-4-4---4-0-0---0

E--------------------------------

G--------------------------------

D-----2-------2-------2-------2--

A-2-2---2-2-2---2-4-4---4-0-0---0

E--------------------------------

i think its time that

G--------------------------------

D-----2-------2-------2-------2--

A-2-2---2-2-2---2-4-4---4-0-0---0

E--------------------------------

G--------------------------------

D-----2-------2-------2-------2--

A-2-2---2-2-2---2-4-4---4-0-0---0

E--------------------------------

G--------------------------------

D-----2-------2-------2-------2--

A-2-2---2-2-2---2-4-4---4-0-0---0

E--------------------------------

G--------------------------------

D-----2-------2-------2-------2--

A-2-2---2-2-2---2-4-4---4-0-0---0

E--------------------------------

G---------------------------------

D---------------------------------

A-0-0-0-0-0-0-0-0-4-4-4-4-5-5-5-5-

E---------------------------------

G---------------------------------

D---------------------------------

A-0-0-0-0-0-0-0-0-4-4-4-4-5-5-5-5-

E---------------------------------

G---------------------------------

D---------------------------------

A-0-0-0-0-0-0-0-0-4-4-4-4-5-5-5-5-

E---------------------------------

G---------------------------------

D---------------------------------

A-0-0-0-0-0-0-0-0-4-4-4-4-5-5-5-5-

E---------------------------------

Order

Guitar does 8 note measure

Intro x1

Verse x1

Pasue for guitar fill

Intro x1

Verse x1

Chorus x1

Verse x1

Chorus x1

Bridge x1

Chorus x1

Intro x1

__________________________________________________________

13 Please Take Me Home

Verse (oh no it happened)

G------------------------------------

D------------------------------------

A-22222222-44444444------------------

E-------------------44444444-00000000

G------------------------------------

D------------------------------------

A-22222222-44444444------------------

E-------------------44444444-00000000

G------------------------------------

D------------------------------------

A-22222222-44444444------------------

E-------------------44444444-00000000

G------------------------------------

D------------------------------------

A-22222222-44444444------------------

E-------------------44444444-00000000

Pre-Chorus (shes unstoppable)

G-----------------------------------------------------

D-----------------------------------------------------

A----------22-2---------------------------------------

E-00-0--------------44-4-----22-2-----0-0-0-00-00-0-0-

Chorus (Please take me home)

G--------------------------------

D--------------------------------

A-2-2-2-2-1-1-1-1----------------

E-----------------4-4-4-4-0-0-0-0

G---------------------------------

D---------------------------------

A-2-2-2-2-1-1-1-1-----------------

E-----------------4-4-4-4-0~------

Bridge

G------------------------------------------------------------------

D------------------------------------------------------------------

A-2~-------------22--------------22---------------22---------------

E------------------------------------------------------------------

-why did we have to go date...

G---------------------------------------------------------------------

D---------------------------------------------------------------------

A-22--------------22---------------22---------------22----------------

E---------------------------------------------------------------------

be strong when things fall apart

G------------------------------------

D------------------------------------

A-22222222-44444444-66666666---------

E----------------------------00000000

G------------------------------------

D------------------------------------

A-22222222-44444444-66666666---------

E----------------------------00000000 -lets go!

G------------------------------------

D------------------------------------

A-22222222-44444444------------------

E-------------------44444444-00000000

G------------------------------------

D------------------------------------

A-22222222-44444444------------------

E-------------------44444444-00000000

G----------------------------

D----------------------------

A-2-2-24-1-1-12--------------

E---------------4-4-44-0-0-00

G------------------------------

D------------------------------

A-2-2-22-1-1-11----------------

E---------------4-4-444-0-0-0-0

G-----------------

D-----------------

A-----------------

E-2222222222222222

Order:

Pause for guitar intro

Verse x1

Pre-Chorus x1

Chorus x1

Verse x1

Pre-Chorus x1

Chorus x1

Bridge x1

Chorus x2

Get this song at:  amazon.com sheetmusicplus.com

Share your thoughts

0 Comments found