Blink 182

Blink 182 - Zulu guitar tab

Intro (let ring) tabbed by:loserkid

e|--------------------------------------------------------------------|

B|--------------------------------------------------------------------|

G|-6------------------------------------------------------------------|

D|-7------------------------------------------------------------------|

A|-5------------------------------------------------------------------|

E|--------------------------------------------------------------------|

Riff 1 x2

e|--------------------------------------------------------------------|

B|--------------------------------------------------------------------|

G|--------------------------------------------------------------------|

D|-777----777------777------------------------------------------------|

A|----4445---4445-----44454445-7--------------------------------------|

E|--------------------------------------------------------------------|

Riff 2

e|---------------------------------------------------------------------|

B|---------------------------------------------------------------------|

G|----------------777666-------9x9x-777666-----------------------------|

D|-7-7-7-7-7-7-7---------------9x9x------------------------------------|

A|-7-7-7-7-7-7-7-----------x3--7x7x------------------------------------|

E|-5-5-5-5-5-5-5-------------------------------------------------------|

Get this song at:  amazon.com sheetmusicplus.com

Share your thoughts

0 Comments found